Hell Is For HeroesOut Of Sight Текст

0 Голосов
OUT OF SIGHT

Hell Is For Heroes
Transcribed by Stephen Jones

{NOTE: Both Tom and Will's guitars are almost always tuned to DADGBE ('drop D' tuning)!}


e|------------------|------------------|
B|------------------|------------------|
G|------------------|------------------|
D|------------------|------------------|
A|---7>9---9>10---7-|---7>9---9>10---7-|
D|-0-----0------0---|-0-----0------0---|



[Will - w/ heavy distortion]
e|-----------|-----------|-----------|-----------|
B|-----------|-----------|-----------|-----------|
G|-2-2-2-2-2-|-----------|-2-2-2-2-2-|-----------|
D|-0-0-0-0-0-|-4-4-4-4-4-|-0-0-0-0-0-|-4-4-4-4-4-|
A|-0-0-0-0-0-|-4-4-4-4-4-|-0-0-0-0-0-|-4-4-4-4-4-|
D|-0-0-0-0-0-|-4-4-4-4-4-|-0-0-0-0-0-|-4-4-4-4-4-|

[Tom - w/distortion]
e|--------------|--------------|--------------|--------------|
B|--------------|--------------|--------------|--------------|
G|-9-11---11-12-|-11-----------|-9-11---11-12-|-11-----------|
D|-x--x----x--x-|--x-----------|-x--x----x--x-|--x-----------|
A|-7--9----9-10-|--9-----------|-7--9----9-10-|--9-----------|
D|--------------|--------------|--------------|--------------|



[Will]
e|-----------|-----------|-----------|-----------|
B|-----------|-----------|-----------|-----------|
G|-2-2-2-2-2-|-----------|-2-2-2-2-2-|-----------|
D|-0-0-0-0-0-|-4-4-4-4-4-|-0-0-0-0-0-|-4-4-4-4-4-|
A|-0-0-0-0-0-|-4-4-4-4-4-|-0-0-0-0-0-|-4-4-4-4-4-|
D|-0-0-0-0-0-|-4-4-4-4-4-|-0-0-0-0-0-|-4-4-4-4-4-|
x1)Once more I get burned kick out the closed gate 'cause I'm ready to
x2)Join the crowd and I'm ready to unlock the padlock on my mind


[Will]
e|------------------|------------------|------------------|------------------|
B|------------------|------------------|------------------|------------------|
G|------------------|------------------|------------------|------------------|
D|------------------|------------------|------------------|------------------|
A|---7>9---9>10---7-|------------------|---7>9---9>10---7-|------------------|
D|-0-----0------0---|------------------|-0-----0------0---|------------------|
Twisted and torn

e|------------------|------------------|------------------|------------------|
B|------------------|------------------|------------------|------------------|
G|------------------|------------------|------------------|------------------|
D|------------------|------------------|------------------|------------------|
A|---7>9---9>10---7-|------------------|---7>9---9>10---7-|------------------|
D|-0-----0------0---|------------------|-0-----0------0---|------------------|
the tensions that tear my will from my mind
[Tom]-{muted w/dist}
e|------------------|------------------|------------------|------------------|
B|------------------|------------------|------------------|------------------|
G|------------------|------------------|------------------|------------------|
D|------------------|------------------|------------------|--------(0-0-0)---|
A|---7>9---9>10---7-|------------------|---7>9---9>10---7-|--------(0-0-0)---|
D|-0-----0------0---|------------------|-0-----0------0---|--------(0-0-0)---|
my reason from rhyme and I can't decide

e|------------------|------------------|------------------|------------------|
B|------------------|------------------|------------------|------------------|
G|------------------|------------------|------------------|------------------|
D|------------------|------------------|------------------|------------------|
A|---7>9---9>10---7-|------------------|---7>9---9>10---7-|------------------|
D|-0-----0------0---|------------------|-0-----0------0---|------------------|
which one to feed and which one to fight



[Will] - (Tom plays what he did first time round)
e|-----------|-----------|-----------|-----------|
B|-----------|-----------|-----------|-----------|
G|-2-2-2-2-2-|-----------|-2-2-2-2-2-|-----------|
D|-0-0-0-0-0-|-4-4-4-4-4-|-0-0-0-0-0-|-4-4-4-4-4-|
A|-0-0-0-0-0-|-4-4-4-4-4-|-0-0-0-0-0-|-4-4-4-4-4-|
D|-0-0-0-0-0-|-4-4-4-4-4-|-0-0-0-0-0-|-4-4-4-4-4-|
x1)Once more I get scarred, break through the brick wall and just gather my
x2)Thoughts and go, and I'm ready to pick up the pieces of my life



- (played twice)
e|--------------|----------------|--------------|--------------|
B|--------------|----------------|--------------|--------------|
G|-16-18--16-19-|-18-------------|-16-18--18-19-|-18-----------|
D|--x--x---x--x-|--x-------------|--x--x---x--x-|--x-----------|
A|-14-16--16-17-|-16-------------|-14-16--16-17-|-16-----------|
D|--------------|----------------|--------------|--------------|
I wanna be - out of sight! I wanna be - out of mind!
I wanna be - out of sight! I wanna be - out of mind!



e|--------0-----|---------0------|--------0----|---------0------|
B|--------0-----|---------0------|--------0----|---------0------|
G|--------0-----|---------0------|--------0----|---------0------|
D|-3------0-----|--3------0------|--3-----0----|--3------0------|
A|-3------0-----|--3------0------|--3-----0----|--3------0------|
D|-3------0-----|--3------0------|--3-----0----|--3------0------|


[Will]
e|------------------|------------------|------------------|------------------|
B|------------------|------------------|------------------|------------------|
G|------------------|------------------|------------------|------------------|
D|------------------|------------------|------------------|------------------|
A|---7>9---9>10---7-|------------------|---7>9---9>10---7-|------------------|
D|-0-----0------0---|------------------|-0-----0------0---|------------------|


e|------------------|------------------|------------------|------------------|
B|------------------|------------------|------------------|------------------|
G|------------------|------------------|------------------|------------------|
D|------------------|------------------|------------------|------------------|
A|---7>9---9>10---7-|------------------|---7>9---9>10---7-|------------------|
D|-0-----0------0---|------------------|-0-----0------0---|------------------|
I can't seem to judge the distance between

e|------------------|------------------|------------------|------------------|
B|------------------|------------------|------------------|------------------|
G|------------------|------------------|------------------|------------------|
D|------------------|------------------|------------------|------------------|
A|---7>9---9>10---7-|------------------|---7>9---9>10---7-|------------------|
D|-0-----0------0---|------------------|-0-----0------0---|------------------|
my hands and feet quite literally...


[Will] - (Tom plays what he did first time round)
e|-----------|-----------|-----------|-----------|
B|-----------|-----------|-----------|-----------|
G|-2-2-2-2-2-|-----------|-2-2-2-2-2-|-----------|
D|-0-0-0-0-0-|-4-4-4-4-4-|-0-0-0-0-0-|-4-4-4-4-4-|
A|-0-0-0-0-0-|-4-4-4-4-4-|-0-0-0-0-0-|-4-4-4-4-4-|
D|-0-0-0-0-0-|-4-4-4-4-4-|-0-0-0-0-0-|-4-4-4-4-4-|
x1)Walk slow into the vacuum, this is the end of everything!
x2)Welcome back to the black hole, raise the shades up from your eyes...


[Tom]
e|--------------|----------------|--------------|--------------|
B|--------------|----------------|--------------|--------------|
G|-16-18--16-19-|-18-------------|-16-18--18-19-|-18-----------|
D|--x--x---x--x-|--x-------------|--x--x---x--x-|--x-----------|
A|-14-16--16-17-|-16-------------|-14-16--16-17-|-16-----------|
D|--------------|----------------|--------------|--------------|
And then I'll be - out of sight! And then I'll be - out of mind!
And then I'll be - out of sight! And I will be - out of mind!


- {both parts played together}
[Will's part] - (played four times)
e|-------|------------|--------------|-----------------|
B|-------|------------|--------------|-----------------|
G|-5-5-5-|-5-5--5-5-5-|-5-7-7--7-7-7-|-14-14--14-14-14-|
D|-x-x-x-|-x-x--x-x-x-|-x-x-x--x-x-x-|--x--x---x--x--x-|
A|-3-3-3-|-3-3--3-3-3-|-3-5-5--5-5-5-|-12-12--12-12-12-|
D|-------|------------|--------------|-----------------|

[Tom's part]
e|-------|------------|--------------|------------|
B|-------|------------|--------------|------------|
G|-------|------------|---2-2--2-2-2-|-7-7--7-7-7-|
D|-3-3-3-|-3-3--3-3-3-|-3-0-0--0-0-0-|-7-7--7-7-7-|
A|-3-3-3-|-3-3--3-3-3-|-3-0-0--0-0-0-|-5-5--5-5-5-|
D|-3-3-3-|-3-3--3-3-3-|-3-0-0--0-0-0-|------------|

e|-------|------------|--------------|------------|
B|-------|------------|--------------|------------|
G|-------|------------|---2-2--2-2-2-|-7-7--7-7-7-|
D|-3-3-3-|-3-3--3-3-3-|-3-0-0--0-0-0-|-7-7--7-7-7-|
A|-3-3-3-|-3-3--3-3-3-|-3-0-0--0-0-0-|-5-5--5-5-5-|
D|-3-3-3-|-3-3--3-3-3-|-3-0-0--0-0-0-|------------|

e|----------|-----------------|--------------------|-----------------|
B|----------|-----------------|--------------------|-----------------|
G|-14-14-14-|-14-14--14-14-14-|-14-16-16--16-16-16-|-17-17--17-17-17-|
D|--x--x--x-|--x--x---x--x--x-|--x--x--x---x--x--x-|--x--x---x--x--x-|
A|-12-12-12-|-12-12--12-12-12-|-12-14-14--14-14-14-|-15-15--15-15-15-|
D|----------|-----------------|--------------------|-----------------|

e|----------|-----------------|--------------------|-----------------|
B|----------|-----------------|--------------------|-----------------|
G|-21-21-21-|-21-21--21-21-21-|-21-14-14--14-14-14-|-14-14--14-14-14-|
D|--x--x--x-|--x--x---x--x--x-|--x--x--x---x--x--x-|--x--x---x--x--x-|
A|-19-19-19-|-19-19--19-19-19-|-19-12-12--12-12-12-|-12-12--12-12-12-|
D|----------|-----------------|--------------------|-----------------|



[Will] - (Tom plays his usual chorus riff)
e|-----------|-----------|-----------|-----------|
B|-----------|-----------|-----------|-----------|
G|-2-2-2-2-2-|-----------|-2-2-2-2-2-|-----------|
D|-0-0-0-0-0-|-4-4-4-4-4-|-0-0-0-0-0-|-4-4-4-4-4-|
A|-0-0-0-0-0-|-4-4-4-4-4-|-0-0-0-0-0-|-4-4-4-4-4-|
D|-0-0-0-0-0-|-4-4-4-4-4-|-0-0-0-0-0-|-4-4-4-4-4-|
x1)And I'll be out of sight, and I'll be out of mind,
x2)And I'll be out of sight, and I'll be out of mind,


[Tom] - {Will continues to play the same}
e|--------------|----------------|--------------|--------------|
B|--------------|----------------|--------------|--------------|
G|-16-18--16-19-|-18-------------|-16-18--18-19-|-18-----------|
D|--x--x---x--x-|--x-------------|--x--x---x--x-|--x-----------|
A|-14-16--16-17-|-16-------------|-14-16--16-17-|-16-----------|
D|--------------|----------------|--------------|--------------|
Once more I get burned Kick out the closed 'cause I'm ready to
(Out of sight!) (Out of mind!)

e|--------------|----------------|--------------|--------------|-------|
B|--------------|----------------|--------------|--------------|-------|
G|-16-18--16-19-|-18-------------|-16-18--18-19-|-18-----------|-2-2-2-|
D|--x--x---x--x-|--x-------------|--x--x---x--x-|--x-----------|-0-0-0-|
A|-14-16--16-17-|-16-------------|-14-16--16-17-|-16-----------|-0-0-0-|
D|--------------|----------------|--------------|--------------|-0-0-0-|
(muted)
join the crown and I'm ready to unlock the padlock on my mind!
(Out of sight!)
Другие песни: