Harrison GeorgeGently Weeps Текст, аккорды

0 Голосов
A C#m F#m C#m Bm E
I dont know why, nobody told you, how to unfold your love.

Then I like to throw in a solo, in the Key of A blues:

E|-------------------------------------------------|
B|----------------------------------------13----13-|
G|---------------------------12-14^-12-14----14----|
D|--------12--------12-13-14-----------------------|
A|--12-15------12-15-------------------------------|
E|-------------------------------------------------|

E|------------------------------------|
B|-15-17--13-----15-------15-15-15-17-|
G|------------14----16-12-------------|
D|------------------------------------|
A|------------------------------------|
E|------------------------------------|
Другие песни: