Harper BenWaiting On An Angel Текст

0 Голосов
----------------------------------------------------------------------------

WAITING ON AN ANGEL - Ben Harper - live from mars
----------------------------------------------------------------------------

Transcribed by Soozn
Email: Soozn@mail2medieval.com

Tuning:EADGBe
Timing 3/4

intro
C Am G
e||----------------|----------------|----------------|---------------|
B||-----1--1-------|-----1--1-------|-----1--1p0-----|-----0--0h1----|
G||-----0--0-------|-----0--0-------|-----2--2p0-----|-----0--0------|
D||----------------|----------------|----------------|---------------|
A||--3-------------|--2-------------|--0-------------|---------------|
E||----------------|----------------|----------------|--3------------|

C Am G
e|-----------------|----------------|----------------|---------------||
B|-----1--1--------|-----1--1-------|-----1--1p0-----|---------------||
G|-----0--0--------|-----0--0-------|-----2--2p0-----|---------------||
D|-----------------|----------------|----------------|---------------||
A|--3--------------|--2-------------|--0-------------|---------------||
E|-----------------|----------------|----------------|--3------------||

verse (riff 1):

C Am G
e||-----------------|----------------|----------------|--------------||
B||-----1--1--------|-----1--1-------|-----1--1p0-----|-----0--0h1---||
G|*-----0--0--------|-----0--0-------|-----2--2p0-----|-----0--0-----*| repeat x2
D|*-----------------|----------------|----------------|--------------*|
A||--3--------------|--2-------------|--0-------------|--------------||
E||-----------------|----------------|----------------|--3-----------||
waiting on an angel.......

riff 2:

F G Am
e||----------------|----------------|----------------|----------------|
B||----1--1p0------|-----0--0h1-----|-----1--1-------|-----1--1-------|
G||----2--2p0------|-----0--0-------|-----2--2-------|-----2--2-------|
D||----------------|----------------|----------------|----------------|
A||----------------|----------------|--0-------------|----------------|
E||-1--------------|--3-------------|----------------|--0-------------|
cause i dont want to walk a -lo - one

F G
e|-----------------|----------------||
B|-----1--1--------|-----0--0h1-----||
G|-----2--2--------|-----0--0-------||
D|-----------------|----------------||
A|-----------------|----------------||
E|--1--------------|--3-------------||
i dont want to walk

riff 1:

C Am G
e||-----------------|----------------|----------------|--------------||
B||-----1--1--------|-----1--1-------|-----1--1p0-----|-----0--0h1---||
G|*-----0--0--------|-----0--0-------|-----2--2p0-----|-----0--0-----*|
D|*-----------------|----------------|----------------|--------------*|
A||--3--------------|--2-------------|--0-------------|--------------||
E||-----------------|----------------|----------------|--3-----------||
alone

verse 2:

riff 1

C Am G
e||---------------|--------------|----------------|--------------||
B||---1--1--------|-----1--1-----|-----1--1p0-----|-----0--0h1---||
G|*---0--0--------|-----0--0-----|-----2--2p0-----|-----0--0-----*|repeat x2
D|*---------------|--------------|----------------|--------------*|
A||3--------------|--2-----------|--0-------------|--------------||
E||---------------|--------------|----------------|--3-----------||

riff 2

F G Am
e||----------------|----------------|----------------|----------------|
B||----1--1p0------|-----0--0h1-----|-----1--1-------|-----1--1-------|
G||----2--2p0------|-----0--0-------|-----2--2-------|-----2--2-------|
D||----------------|----------------|----------------|----------------|
A||----------------|----------------|--0-------------|----------------|
E||-1--------------|--3-------------|----------------|--0-------------|

F G
e|-----------------|----------------||
B|-----1--1--------|-----0--0h1-----||
G|-----2--2--------|-----0--0-------||
D|-----------------|----------------||
A|-----------------|----------------||
E|--1--------------|--3-------------||

Riff 3:

e||----------------|----------------|----------------|----------------|
B||----1--1--------|-----1--1-------|-----1--1p0-----|-----0--0h1-----|
G|*----0--0--------|-----0--0-------|-----2--2p0-----|-----0--0-------|
D|*----------------|----------------|----------------|----------------|
A||-3--------------|----------------|----------------|----------------|
E||----------------|--0-------------|--1-------------|--3-------------|

e|-----------------|----------------|----------------|---------------||
B|-----1--1--------|-----1--1-------|-----1--1p0-----|-----0--0h1----||
G|-----2--2--------|-----2--2-------|-----2--2p0-----|-----0--0------*|
D|-----------------|----------------|----------------|---------------*|
A|--0--------------|----------------|----------------|---------------||
E|-----------------|--0-------------|--1-------------|--3------------||

riff 4:

e||----------------|----------------|----------------|---------------||
B||-----1--1-------|-----1--1-------|-----1--1p0-----|-----0--0h1----||
G||-----0--0-------|-----0--0-------|-----2--2p0-----|-----0--0------||
D||----------------|----------------|----------------|---------------||
A||--3-------------|----------------|----------------|---------------||
E||----------------|--0-------------|--1-------------|--3------------||

riff 1:

C Am G
e||-----------------|----------------|----------------|--------------||
B||-----1--1--------|-----1--1-------|-----1--1p0-----|-----0--0h1---||
G|*-----0--0--------|-----0--0-------|-----2--2p0-----|-----0--0-----*|
D|*-----------------|----------------|----------------|--------------*|
A||--3--------------|--2-------------|--0-------------|--------------||
E||-----------------|----------------|----------------|--3-----------||

verse 3
riff 1

C Am G
e||---------------|--------------|--------------|--------------||
B||-----1--1------|-----1--1-----|-----1--1p0---|-----0--0h1---||
G|*-----0--0------|-----0--0-----|-----2--2p0---|-----0--0-----*| repeat x2
D|*---------------|--------------|--------------|--------------*|
A||--3------------|--2-----------|--0-----------|--------------||
E||---------------|--------------|--------------|--3-----------||

riff 2

F G Am
e||----------------|----------------|----------------|----------------|
B||----1--1p0------|-----0--0h1-----|-----1--1-------|-----1--1-------|
G||----2--2p0------|-----0--0-------|-----2--2-------|-----2--2-------|
D||----------------|----------------|----------------|----------------|
A||----------------|----------------|--0-------------|----------------|
E||-1--------------|--3-------------|----------------|--0-------------|

F G
e|-----------------|----------------||
B|-----1--1--------|-----0--0h1-----||
G|-----2--2--------|-----0--0-------||
D|-----------------|----------------||
A|-----------------|----------------||
E|--1--------------|--3-------------||

Riff 3:

e||----------------|----------------|----------------|----------------|
B||----1--1--------|-----1--1-------|-----1--1p0-----|-----0--0h1-----|
G|*----0--0--------|-----0--0-------|-----2--2p0-----|-----0--0-------|
D|*----------------|----------------|----------------|----------------|
A||-3--------------|----------------|----------------|----------------|
E||----------------|--0-------------|--1-------------|--3-------------|

e|-----------------|----------------|----------------|---------------||
B|-----1--1--------|-----1--1-------|-----1--1p0-----|-----0--0h1----||
G|-----2--2--------|-----2--2-------|-----2--2p0-----|-----0--0------*|
D|-----------------|----------------|----------------|---------------*|
A|--0--------------|----------------|----------------|---------------||
E|-----------------|--0-------------|--1-------------|--3------------||

riff 4:

e||----------------|----------------|----------------|---------------||
B||-----1--1-------|-----1--1-------|-----1--1p0-----|-----0--0h1----||
G||-----0--0-------|-----0--0-------|-----2--2p0-----|-----0--0------||
D||----------------|----------------|----------------|---------------||
A||--3-------------|----------------|----------------|---------------||
E||----------------|--0-------------|--1-------------|--3------------||

riff 1:

C Am G
e||-----------------|----------------|----------------|--------------||
B||-----1--1--------|-----1--1-------|-----1--1p0-----|-----0--0h1---||
G|*-----0--0--------|-----0--0-------|-----2--2p0-----|-----0--0-----*|
D|*-----------------|----------------|----------------|--------------*|
A||--3--------------|--2-------------|--0-------------|--------------||
E||-----------------|----------------|----------------|--3-----------||

riff 1

C Am G
e||---------------|--------------|--------------|--------------||
B||-----1--1------|-----1--1-----|-----1--1p0---|-----0--0h1---||
G|*-----0--0------|-----0--0-----|-----2--2p0---|-----0--0-----*| repeat x2
D|*---------------|--------------|--------------|--------------*|
A||--3------------|--2-----------|--0-----------|--------------||
E||---------------|--------------|--------------|--3-----------||


e|-----------------|----------------|
B|-----1--1p0------|-----0--0h1-----|
G|-----2--2p0------|-----0--0-------|
D|-----------------|----------------|
A|-----------------|----------------|
E|--1--------------|--3-------------|

riff 4:

e||----------------|----------------|----------------|---------------||
B||-----1--1-------|-----1--1-------|-----1--1p0-----|-----0--0h1----||
G||-----0--0-------|-----0--0-------|-----2--2p0-----|-----0--0------||
D||----------------|----------------|----------------|---------------||
A||--3-------------|----------------|----------------|---------------||
E||----------------|--0-------------|--1-------------|--3------------||

outro:

e|-----------------|----------------|----------------|----------------|
B|-----1--1--------|-----1--1-------|-----1--1p0-----|-----0--0h1-----|
G|-----2--2--------|-----2--2-------|-----2--2p0-----|-----0--0-------|
D|-----------------|----------------|----------------|----------------|
A|--0--------------|----------------|----------------|----------------|
E|-----------------|--0-------------|--1-------------|--3-------------|

C^
e|----------3------||
B|------1---1------||
G|------0----------||
D|----2------------||
A|--3-----3--------||
E|-----------------||

| ^ arpegio
| h hammer-on
| p pull-off


============================================================================
**Please Note**
This file is only my interpretation of the song. You may only use this file for private
study, scholarship, or research. If you have any comments, queries or suggestions please
email me:

Soozn@mail2medieval.com
Другие песни: