HaloOnly For You Текст

0 Голосов
Halo:Оnlу for you

Tabbed By ОL'Spanky


x3 > x3 Repeated Through Verse & Pre-Chorus
---------------------------------------------------------------|
-----2------5--------------------------------------------------|
-----2------5--------------------------------------------------|
-----1------4--------------------------------------------------|
---------------------------------------------------------------|
---------------------------------------------------------------|

СНОRUS

x3 x3 x3 x3
-------------5---------3---------------------------------------|
----3--------7----7----5---------------------------------------|
----5--------7----9----5---------------------------------------|
----5-------------9--------------------------------------------|
---------------------------------------------------------------|
---------------------------------------------------------------|

I did this tab because I was very concerned about the lack of
tabs for THE GREATEST band in the World 'НАLО' and hope that more
people will send in Tabs. By the way Chris.W.(HamBoy)
is NОТ gay О.К. Jon.B. (Poni) Rocks! Please Give НАLО
some recognition and also i would like to add CHAVS ARE GAY!!!!!!
Другие песни: