HaleElegy Текст

0 Голосов
Intro and verse: 
e------------------------------------]
b------------------------------------]
g--6-6-6-6--8-8-8-8--1-1-1-1--3-3-3-3]
d-8-8-8-8--9-9-9-9--3-3-3-3--4-4-4-4-]
a------------------------------------]
E------------------------------------]

Chorus:
e--------------------------------------------------------------------]
b--------------------------------------------------------------------]
g-6-6-6-6-6-6-6-6--8-8-8-8-8-8-8-8--1-1-1-1-1-1-1-1--3-3-3-3-3-3-3-3-]
d-8-8-8-8-8-8-8-8--9-9-9-9-9-9-9-9--3-3-3-3-3-3-3-3--4-4-4-4-4-4-4-4-]
a--------------------------------------------------------------------]
E--------------------------------------------------------------------]
Другие песни: