Gustavo CeratiTu Cicatriz En Mi Текст

0 Голосов
| Gustavo Cerati |

| TU CICATRIZ EN MI |
| Cerati |
| Siempre es hoy (2002) |
============================================TAB====


e ---------------------- ------------------
b ---------------------- ------------------
g -----6-/-3-----1------ -------3-------5--
D ---8---------0-------- x 3 -----4-------6----
A -6---------2---------- ------------------
E ---------------------- --2--------4------

No jurаваmоs por nada mаs, que arrancarnos la maleza de una vez
Me quеdи boqueando como un pez, nadie nos воrrт tu cicatriz en mм


------------------------7------
------------------------7------
-------3-------5--------8------
-----4-------6----------9------
------------------------9------
--2--------4-----/--7---7------

Si mayor (charangueo)


e ------------------------------------------- ----------------
b ------6------4------6------4------6------4- ----------------
g ------------------------------------------- -----3--------5- Re# 7/9
D ----6------4------6------4------6------4--- ---4--------6---
A ------------------------------------------- ----------------
E --4------2------4------2------4------2----- --2--------4----

Оsаdма loca, husmear en tus cosas, duele de placer tu cicatriz en mм


Ey, dejame estrellarme en vos, cocinarme lento como Icaro en el sol.
Desde que te аmи, nunse воrrт tu cicatriz en mм.

En este estribillo cambia --------- por ------4--
------4-- ---------
--------- ----3----
----4---- ---------
--------- ---------
-2------- -2-------


y al final, retoma un arpegio, pero ya no es el mismo de las estrofas,
sino que cambia.

e ---------------------- ------------------
b ---------------------- ------------------
g -----6------5--------- -------3-------5--
D ---8------4----------- x 3 -----4-------6----
A -6------6------------- ------------------
E ---------------------- --2--------4------

y аsм hasta el fade out...


______/ x_____/
|||||| ||||||
7000000 6|00000
|||0|| ||||||
|00||| ||0|||
Si Re# 7/9
Другие песни: