Group XRollerskate Date Текст

0 Голосов
URL to official Group X page : http://www.groupxarab.com/

Country : Saudi Arabia (I think)
Albums: 40 oz. Slushie, Group X


Song: Rollerskate Date
Band: Group X
Album: Stepping on the Crowtch owf your Americain Presidaint

Intro Verse/Chorus
|--------|----------------|--------------------------|
|--------|--------------2-|-3--3--3-3-3--2-2-2h3p2---|
|--/14--|--5--5--5-5-5---|------------------------3-|
|--------|----------------|--------------------------|

|----------------|--------------------------|
|--------------2-|-3--3--3-3-3--2-2-2h3p2---|
|--5--5--5-5-5---|------------------------3-|
|----------------|--------------------------|

|----------------|--------------------------|
|--------------2-|-3--3--3-3-3--2-2-2h3p2---|
|--5--5--5-5-5---|------------------------3-|
|----------------|--------------------------|
Outro
|----------------|--------------------------|--------|
|------------2-3-|-5-----3---2---------5-7--|--------|
|--5--5--5-5-----|--------------------------|-5------|
|----------------|--------------------------|--------|
Другие песни: