GrimskunkSilverhead Текст

0 Голосов
song: Silverhead

Band: Grimskunk
album: Grimskunk
tabbed by: Carlos Pino


4x
G-|---------------------------------------------------------------------------|
D-|---------------------------------------------------------------------------| Who you really are...
A-|-5--5--11--10--8--5--5--8--6--6-3-----5-5-5-11-10-8------------------------|
E-|--------------------------------------------------------------------5-5----|

Sous le petit solo de guitare
G-|----------------------------------------------------------------------------|
D-|----------------------------------------------------------------------------|
A-|-5--5--11--10--8--5--5--8--6---6--3--5--5--11--10--8---5----8---6-6--8------|
E-|----------------------------------------------------------------------------|

4x
G-|--------------------------------------------------------------------------|
D-|--------------------------------------------------------------------------|
A-|-5--5--11--10--8--5--5--8--6---6--3--|--5-5-11-10-8-----------------------|
E-|-------------------------------------|-----------------------------5-5----|

3x Sous le solo d'orgue
G-|--------------------------------------|--------------------------------------------------|
D-|-----------------------------------------------------------------------------------------|
A-|-----------------------------------------------------------------------------------------|
E-|-5--5--5--8--8--8----3--3--3--6--6--6-|-5--5--5--8--8--8-----5--5--8--8--8--5------------|


6x
G-|----------------------------------------------------------------------------------------------|
D-|----------------------------------------------------------------------------------------------|
A-|-5--5--11--10--8--5--5--8--6---6--3-/--5--5--8--6--6--3--5-5-11-10-8--------------------------|
E-|--------------------------------------------------------------------------------------5-5-----|

4x Sous le solo d'orgue 4x (Yeah-eah)
G-|-----------------------------------------------|-------------------------|
D-|-----------------------------------------------|-------------------------|
A-|-----------------------------------------------|-------------------------|
E-|-5--5--5--8--8--8--3--3--3--6--6--6---|-5--8------3-3--6-----------------|


G-|------------------------------------------------------------|
D-|------------------------------------------------------------|
A-|-3--5--5--11--10--8--10--10---8--10--11--10--8--5-5---------|
E-|------------------------------------------------------------|

Sliverhead...With you head in the clouds
G-|------------------------------------|
D-|------------------------------------|
A-|-----6---5--3-----------------------|
E-|------------------------------------|

3x 2x The party rages on
G-|-----------------------------------------------------------------------------------------|
D-|-----------------------------------------------------------------------------------------|
A-|-3--5--5--11--10--8--5--5--8--6--6--|--5--5--8--6--6--3-|-3-5-5-11-10-8--5-5-------------|
E-|-----------------------------------------------------------------------------------------|

4x Sous le solo de la fin 6x (Sous le solo)
G-|--------------------------------------------------------------------|
D-|--------------------------------------------------------------------|
A-|-3--5--5--11--10--8--5--5--8--6--6--|--5--5--8--6--6--3-------------|
E-|----------------------------------------------|---------------------|

4x FIN
G-|-----------------------------------------------------|
D-|-----------------------------------------------------|
A-|--5--5--8--6--6--3--|-5--5--11--10--8----------------|
E-|--------------------|---------------------- ---5-5---|
Другие песни: