GrimskunkLook At Yourself Текст

0 Голосов
song: Look at yourself

band: Grimskunk
album: Grinskunk
tabbed by: Carlos pino

8x 1er couplet 2x
G-|----------------------------------------|---------------------| (le couplet juste 4x)
D-|----------------------------------------|---------------------|
A-|-0--0-0-0--0--0-0-0--0-0-0------|-0---3-5--3----0-------------|
E-|-----------------------------------3-3-|---------------3------|

G-|--------------------------------------------------------------------------------------------------|
D-|--------------------------------------------------------------------------------------------------|
A-|-0-----------------------0---------------------0--------------------0------0-0-0-0-0-0-0----------|
E-|---------------3---------------------3--------------------3---------------------------------------|

(fin du refrain)
--------------------------------------------------|
--------------------------------------------------|
-0-0-0-0-0----------------------------------------|
---------------3-3-3-3-3-3-3-3-3-3-3-3------------|

4x(Sous solo et couplet 2) 2x
G-|----------------------------------------|------------------------|
D-|-----------------------------------------|-----------------------|
A-|-0--0-0-0--0--0-0-0--0-0-0------|-0---3-5--3-----0---------------|
E-|-----------------------------------3-3-|---------------3---------|


G-|----------------------------------------------------------------------------------------------|
D-|----------------------------------------------------------------------------------------------|
A-|-0----------------------0--------------------0-------------------0------0-0-0-0-0-0-0---------|
E-|--------------3---------------------3--------------------3------------------------------------|

(fin du refrain) 2x En-dessous du solo
--------------------------------------------------|---------------------------------------------|
------------------------------------------------|--------------------------------------------|
-0-0-0-0-0-----------------------------------|-0--0-0-0--0--0-0-0--0-0-0---------------------|
---------------3-3-3-3-3-3-3-3-3-3-3-3-|------------------------------------3-3--------------|

Petit boute pas pire
G-|---------------------------------------------------------------------------------------|
D-----------------------------------------------------------------------------------------|
A-|------------------------3-2-1-0-----3-2-1-0------3-2-1-0-3-2-1-0-3-2-1-----------------|
E-|-3---3---3---3---3---------------------------------------------------------------------|

2x (avant le petit solo)
G-|---------------------------|------------------------------------------|
D-|----orgue----orgue--|-------------------------------------------------|
A-|-0------------0----------|-0--0-0-0--0--0-0-0--0-0-0------------------|
E-|-------------------|-------------------------------------------3-3----|

Pendant toute le reste des solos
G-|---------------------------------------------|
D-|---------------------------------------------|
A-|-0--0-0-0--0--0-0-0--0-0-0-------------------|
E-|------------------------------------3-3------|

G-|-------------------------------------------------------------------------------------------------|
D-|-------------------------------------------------------------------------------------------------|
A-|-0----------------------0---------------------0-------------------0------0-0-0-0-0-0-0-----------|
E-|--------------3---------------------3--------------------3---------------------------------------|

(fin du refrain) Dernier beat(jusqu'? la fin)
------------------------------------------------------|-----------------------------------------|
----------------------------------------------------|----------------------------------------|
-0-0-0-0-0--------------------------------------|-7-7--7-7-7--7-7-7--7-7--5-5----------------|
---------------3-3-3-3-3-3-3-3-3-3-3-3--5-|--------------------------------------------------|
Другие песни: