Green JellyAnthem Текст

0 Голосов
Intro

A E F#m E
E|----------------|----------------|----------------|----------------|
B|--------2-------|----------------|----------------|----------------|
G|----2-----2-----|--------1-------|--------2-------|--------1-------|
D|--2---2-----2---|----2-----2-----|----4-----4-----|----2-----2-----|
A|0-------------0-|--2---2-----2---|--4---4-----4---|--2---2-----2---|
E|----------------|0-------------0-|2-------------2-|0-------------0-|

D A B
E|----------------|----------------|------------|
B|--------3-------|--------2-------|------------|
G|----2-----2-----|----2-----2-----|------------| repeat
D|--0---0-----0---|--2---2-----2---|------------|
A|0-------------0-|0-------------0-|2-2h4-2-----|
E|----------------|----------------|--------4-0-|


Chorus:
E|-------------------|----------------|
B|-------------------|----------------|
G|-------------------|----------------|
D|-------------------|-7-6-7-6-7-6-7--|
A|-4-2-2-4---4-2-2-4-|-5-4-5-4-5-4-5--|
E|-2-0-0-2---2-0-0-2-|----------------|
Heavy palm mute on the E's.

Intro:
A-E-F#m-E-D-A-B-E

Verses:
A-C#m-F#m-E-D-A-Bm-E

Chorus:
F#5-E5-F#5-F#5-E5-F#5 D5-C#5-D5-C#5-D5-C#5-D5
Другие песни: