Green DayHaha You're Dead Текст

0 Голосов
Intro x2
E|------------------------------|
B|------------------------------|
G|-----5------------------------|
D|-----5-x8--5----------7-------|
A|-----3-----5-x8-------7---x16-|
E|-----------3----------5-------|

Verse x4
E|---------------------------------|
B|---------------------------------|
G|-----5---------------------------|
D|-----5-x8-----5----------7-------|
A|-----3--------5-x8-------7---x16-|
E|--------------3----------5-------|

Pre chorus x4
E|-------------------------------|
B|-------------------------------|
G|---------------- 5-------------|
D|----3------------5----5--------|
A|----3---x2-------3----5----x16-|
E|----1-----------------3--------|

Verse x4
E|---------------------------------|
B|---------------------------------|
G|-----5---------------------------|
D|-----5-x8-----5----------7-------|
A|-----3--------5-x8-------7---x16-|
E|--------------3----------5-------|

Pre chorus x4
E|-----------------------------|
B|-----------------------------|
G|-------------- 5-------------|
D|--3------------5----5--------|
A|--3---x2-------3----5----x16-|
E|--1-----------------3--------|

Chorus x1
E|-----------------------------------------------------------------------------|
B|-----------------------------------------------------------------------------|
G|-5------------------5---------------------------------------5-----------5----|
D|-5--x8----3---------5-x8---5---------7---------5----3-------5-x4--5-----5-x4-|
A|-3--------3--x8-----3------5---x8----7--x8-----5----3--x8---3-----5-x4--3----|
E|----------1----------------3---------5---------3----1-------------3----------|

Riff
E|-----------------------------------------------------------------------------|
B|-5-5-5-5-6-6-6-6-5-5-5-5-8-8-8-8--5-5-5-5--6-6-6-6--5-5--3-3-----------------|
G|-5-5-5-5-5-5-5-5-5-5-5-5-7-7-7-7--5-5-5-5--5-5-5-5--5-5--4-4-5-5-5-5-5-5-5-5-|
D|-----------------------------------------------------------------------------|
A|-----------------------------------------------------------------------------|
E|-----------------------------------------------------------------------------|

Chorus x2 (words change second time round, riff played in bakground)
E|-----------------------------------------------------------------------------|
B|-----------------------------------------------------------------------------|
G|--5---------------5---------------------------------------5------------5-----|
D|--5--x8----3------5-x8---5---------7-------5----3---------5-x4----5----5--x4-|
A|--3--------3--x8--3------5---x8----7--x8---5----3---x8----3-------5-x4-3-----|
E|-----------1-------------3---------5-------3----1-----------------3----------|

Outro: x1
E|---------------------------------------------|
B|---------------------------------------------|
G|-5-5-5-5-----------------------------5-5-5-5-|
D|-5-5-5-5--5-5-5-5--7-7-7-7--3-3-3-3--5-5-5-5-|
A|-3-3-3-3--5-5-5-5--7-7-7-7--3-3-3-3--3-3-3-3-|
E|----------3-3-3-3--5-5-5-5--1-1-1-1----------|

E|-----------------------|
B|-----------------------|
G|----------5-5-5-5----5-|
D|-5-5-5-5--5-5-5-5----5-|
A|-5-5-5-5--3-3-3-3----3-|
E|-3-3-3-3---------------|
Другие песни: