Green DayBlood Sex And Booze Текст

0 Голосов
Green Day, Blood, sex and booze.

Tabbed by Sebastian Lapidus, sebaslap@yahoo.com.

Intro:

|---------------------------------|
|---------------------------------|
|-9-9-9-9-9-9-9-9-9-9-9-9-9-9-9-9-|
|-9-9-9-9-9-9-9-9-9-9-9-9-9-9-9-9-|
|-7-7-7-7-7-7-7-7-7-7-7-7-7-7-7-7-|
|---------------------------------|
PM________________________________

Verse:

|---------------------------------------------|
|---------------------------------------------|
|-9-9-9-9-9-9-9-9-9-9-9-5-5-5-5-5-5-5-5-5-5-5-|
|-9-9-9-9-9-9-9-9-9-9-9-5-5-5-5-5-5-5-5-5-5-5-|
|-7-7-7-7-7-7-7-7-7-7-7-3-3-3-3-3-3-3-3-3-3-3-|
|---------------------------------------------|
PM____________________________________________

Pre chorus:

|---------|
|---------|
|-5/9-5/9-|
|-5/9-5/9-|
|-3/7-3/7-|
|---------|

Chorus:

|---------------------------------------------------|
|---------------------------------------------------|
|-6-6-6-6-6-6-6-9-9-9-9-9-9-9-9-6-6-6-6-6-----------|
|-6-6-6-6-6-6-6-9-9-9-9-9-9-9-9-6-6-6-6-6-7-7-7-7-9-|
|-4-4-4-4-4-4-4-7-7-7-7-7-7-7-7-4-4-4-4-4-7-7-7-7-9-|
|-----------------------0-0-0-0-----------5-5-5-5-7-|

Post chorus:

|-----------------------------------------|
|-----------------------------------------|
|-5-5-5-5-5-5-5-6-6-6-6-6-6-6-6-7-7-7-7-9-|
|-5-5-5-5-5-5-5-6-6-6-6-6-6-6-6-7-7-7-7-9-|
|-7-7-7-7-7-7-7-4-4-4-4-4-4-4-4-7-7-7-7-9-|
|-------------------------------5-5-5-5-7-|

Repeat intro, verse, pre chorus, chorus and post chorus then comes the Bridge:

|------------------|
|------------------|
|-9-9-9-9--5-5-5-5-|
|-9-9-9-9--5-5-5-5-| Repeat a few times
|-7-7-7-7--3-3-3-3-|
|-----7-7------3-3-|

Repeat chorus.

Outro:

|-
|-
|-
|-14-14-14-14-14-14-12-12-12-12-12-12-11-11-11-11-11-
|-14-14-14-14-14-14-12-12-12-12-12-12-11-11-11-11-11-
|-12-12-12-12-12-12-10-10-10-10-10-10--9--9--9--9--9-

------------------------|
------------------------|
------------------------|
-11-10-10-10-10-10-10-9-|
-11-10-10-10-10-10-10-9-|
--9--8--8--8--8--8--8-7-|
:: Ultimate Guitar Archive ::
http://www.ultimate-guitar.com
Другие песни: