Gravity KillsEnough Текст

0 Голосов
LINK 80-ENOUGH

tabbed by BEN MEYER benm@oakweb.com


INTRO:

G:--------------------------------*---------------------------1-----
D:-------------------4-------1----*-------------------4---2-2---2---
A:-----22-4-4--4-5-5---5-2-2---2--*---------22-4-4--4-5-5---5-------
E:-2-2----------------------------*-----2-2-------------------------


(PLAY BEFORE STARS 1 TIME THEN GO TO AFTER STARS AND PLAY IT 1 TIME)


VERSE:

G:---------------------------------------------------------------
D:-----------------------------------------------------2-2--2----
A:---------4-4--4-5-5--5-2-2--2----------4-4--4-5-5--5-----------
E:-2-2--2------------------------2-2--2--------------------------




CHORUS:

G:-------------------------------------------------------------------
D:-----------------------------------------------------2-------------
A:-----4-5-5-5-5-5-5-5-5-4-2-2-2-----4-5-5-5-5-5-5-5-5---5-4-2-2-2-2-
E:-2-2---------------------------2-2---------------------------------


OUTRO:

G:---------*------------------------------------
D:---------*-----------3-4-3---4-5-4------------ (REPEAT PART BEFORE
A:---4-5---*---2-3-2-4-------5----------6-7-6--- STARS 2 TIMES AND PLAY
E:-2-----7-*-2------------------------7--------- AFTER STARS 2 TIMES)
Другие песни: