Grateful DeadOh Babe, It Ain't No Lie Текст, аккорды

0 Голосов
Intro:
E---0--------0---0---------0-------------------------------- M
B---------1-------------1------1-------3---1------1--------- I
G------0-------------0------------0h2----------2------------ D
D---2------------2-------------3-----------3---------------- I 2
A-----------------------------------------------------------
E----------------------------------------------------------- B T
A О
E---------0---------0--------------------------------------- R
B--1--3----------1------------1---------3---1------1--1----1 S 1
G-------------0------------2---------4-----------0--------0- 6
D---------2-------------3---------5------------2--------2---
A-------------------------------------------3---------3-----
E-----------------------------------------------------------

Repeat 1st 2 staffs

E---------------------3----------6------5---0-------0--0---- 17
B------------------0-------------7------6-------------------
G---------------0----------5^6-------5-----------0---------0 ТО
D----------------------------------------------2---------2--
A--3--2--0----------------------------------3----------3---- 21
E-----------3-----------------------------------------------

E--0---------0---0--0--0-----1---------1---1--------1------- 21
B--0------0------0--------3--1------1------1-----1----------
G--1---1---------1-----------2---2---------2--2------------- ТО
D--2-------------------------3-------------3----------------
A--2-------------------------3-------------3---------------- 25
E--0--------------------------------------------------------

F C C#
E----------------------------0------------0-----0--1-------- 25
B--------1-3-------1--3--1---1---------1-----1--------------
G---0h2-------0h2------------0------0----------------------- ТО
D----------------------------2---2--------------------------
A----------------------------3------------------------------ 29
E-----------------------------------------------------------

D C G F C
E------2----0----------------------------------------------- 29
B---------------1------0---1---3---1---------1---1--------1-
G---2---------------0---------------------0------------0---- ТО
D--------------------------------------2------------2-------
A----------------------------------3-------------3---------- 33
E-----------------------------------------------------------

C F
Been all around this whole round world
C F G
And I just got back today
C F
Work all the week, honey I’d give all to you
C F G C
Honey, babe, what more can I do?

G F C
Он, babe, it ain’t no lie
E7 F
Он, babe, it ain’t no lie
F C
Он, babe, it ain’t no lie
C D# D C G F C
You know this life I’m livin’ is mighty fine

Оnе old woman, Lord, in this town
Keep-a tellin’ her lies on me
Wish to my soul that old woman would die
Keep-a tellin’ her lies on me
Другие песни: