Grant AmyLike I Love You Текст

0 Голосов
#----------------------------------PLEASE NOTE---------------------------------#
#This file is the author's own work and represents their interpretation of the #
#song. You may only use this file for private study, scholarship, or research. #
#------------------------------------------------------------------------------#
#

Date: Mon, 08 Dec 1997 19:18:31 +0100
From: Rok Osojnik
Subject: CRD: Like I love you by Amy Grant

Amy Grant: Like I Love You

Written by Keith Thomas, Amy Grant & Wayne Kirkpatrick
Album: Behind The Eyes
Transcribed by Rok Osojnik


This song is a perfect choice for a dedication on the radio to someone you really care for. Try it sometime.


THIS SONG IS CAPOED AT 1ST FRET.
All chords are named as if the capo was the nut.


Chords used:
G C Am D Dsus2 Dsus4 Em Dm Bm
e--3---0---0---2----0------3----0----5----2--|
b--3---1---1---3----3------3----0----6----3--|
g--0---0---2---2----2------2----0----7----4--|
d--0---2---2---0----0------0----2----7----4--|
a--2---3---0---X----X------X----2----5----2--|
e--3---X---X---X----X------X----0----5----2--|



Intro:
Am G G Dsus2 D D D
e------------0-|--------------3-|--3-------3-|----0h2--2--2--|
b------------1-|--------------3-|----------3-|----3----3--3--|
g--------0---2-|--------0-----0-|----------0-|----2----2--2--|
d------2-----2-|----------0---0-|----------0-|----0----0--0--|
a----0-------0-|--0h2-3-------2-|------2---2-|----X----X--X--|
e--3---------X-|--------------3-|----3-----3-|----X----X--X--|


Am G G Dsus2 D Dsus4 D
e------------0-|--------------3-|--3-------3-|----0h2---3---2--|
b------------1-|--------------3-|----------3-|----3-----3---3--|
g------------2-|--------0-----0-|----------0-|----2-----2---2--|
d------------2-|----------0---0-|----------0-|----0-----0---0--|
a--0---0-----0-|--0h2-3-------2-|----------2-|----X-----X---X--|
e------------X-|--------------3-|----3-3---3-|----X-----X---X--|


Verse:

Am Em
Why do lovers drift apart
C Dsus2 D
And how does love fade away
Am Em C Dsus2
When do pieces of a broken heart mend again

Am Em
You've been cryin' in the dark
C Dsus2 D
And you've been feelin' alone
Am Em
Don't be scared of what you'll find
Dsus2 D
When you turn the light on


Chorus:

G D
Ain't nobody gonna say good-bye
C D
No, ain't nobody gonna walk away
G D C D
This time, baby, I'm learning how to love you, love you

G D
Ain't nobody gonna make you cry
C D G D
No, ain't nobody ever really tried to love you
G D Dsus2
Like I love you


Verse:

Am Em C
What sad memory of yesterday
Dsus2 D
what terrible scar
Am Em C
Keeps you gathering the pieces of
Dsus2
your shattered heart

Am Em
There was once upon a time
C Dsus2 D
When hope was living within
Am Em
I know there will come a time
Dsus2 D
When you can believe again


Chorus:

G D
Ain't nobody gonna say good-bye
C D
No, ain't nobody gonna walk away
G D C D
This time, baby, I'm learning how to love you, love you

G D
Ain't nobody gonna make you cry
C D G D
No, ain't nobody ever really tried to love you
G D
Like I love you


Bridge:

Dm Bm C Dsus2
How long have you been feeling lonely

Dm Bm C Dsus2 D Dsus4
How long have you been feeling sad and blue


Solo:

G D C D


Chorus:

G D C D
This time baby, I'm learning how to love you, love you
G D
Ain't nobody gonna make you cry
C D G D
No, ain't nobody ever really tried to love you
G D
Like I love you


G D C D


G D C D
This time baby, I'm learning how to love you, love you


G D C D


G D G D
Let me love you, like I love you


G D C D

G D C D

(Fade out)



If you have any corrections, comments, opinions or problems, then feel free to email me at rok.osojnik@siol.net
Другие песни: