Градский АлександрКак молоды мы были (табы) Текст

0 Голосов
e(1)|-------------0-2-3--------0----3-0--------3-0----2------------------------3--------0-------3-0----0----0-------0----------|
b(2)|-0-1--0------------0-3-1-----------1----------0---4-0-------0-1-0--0-0------0-3-1--------------1---------4--2-4-----------|
g(3)|--------------------------------------------------------------------------------------------------------------------------|
d(4)|--------------------------------------------------------------------------------------------------------------------------|
a(5)|--------------------------------------------------------------------------------------------------------------------------|
e(6)|--------------------------------------------------------------------------------------------------------------------------|

Под припев:
e(1)|-0-0-------------------5-3----0-0-------------------5-4------10-10-8---10-8-7-------------7-7--10-8-8---------------------|
b(2)|-----1-0-----0-1-0-4-7------------1-0-----0-1-0-4-7---------------------------10-10-9--10-------------------10--8-7-------|
g(3)|---------2----------------------------2------------------------------9----------------------------------------------9-9-8----8-9|
d(4)|------------------------------------------------------------------------------------------------------10-10----------------11---|
a(5)|--------------------------------------------------------------------------------------------------------------------------|
e(6)|--------------------------------------------------------------------------------------------------------------------------|
Другие песни: