GorillazEl Manana Текст

0 Голосов
(guitar 1)
|----------------------------|
|----7---5---3---2-----------|
|--9---7---5---4-------------| repeat (can repeat throughout whole song)
|----------------------------|
|----------------------------|
|----------------------------|

(guitar 2)
|----------------------------|
|------10-----8-----6-----5--|
|---7------7-----7-----7-----|
|--7-7----7-7---7-7---7-7----|
|----------------------------|
|----------------------------|

(guitar 3)
|----------------------------|
|----------------------------|
|-9-7-5-5-2-5-7-9-14-9-7-5-2-|
|----------------------------|
|----------------------------|
|----------------------------|
Другие песни: