Good RiddanceToken Idiot Текст

0 Голосов
-----------------------------------------------------------------------
TOKEN IDIOT GOOD RIDDANCE
-----------------------------------------------------------------------

INTRO
g]------------------------]
d]------------------------]
a]-----5-5-5-----8-8-8-6>-]
e]-6-6-------3-3----------]

VERSE
g]---------------]
d]---------------]
a]----5-------6>-]
e]-6>---3-3-3----]

CHORUS
g]-----------------------------]
d]-----------------------------]
a]----8>-10>-6>----8>-10>-10-8-]
e]-6>-----------6>-------------]

VERSE
CHORUS

JUST BEFORE BRIDGE
g]----]
d]----]
a]----]
e]-6>-]

PLAY INTRO AS BRIDGE
VERSE
Другие песни: