Good CharlotteGirls And Boys Текст, аккорды

0 Голосов
Good Charlotte - Girls And Boys

Submitted By: Jake Brown


Into:
G:--------------------
D:--------------------
A:---------------6-5--
E:--4-0-4-6----4-----6

Riff 1:
G:----------------------------
D:----------------------------
A:----------------------------
E:---4444---66666------4444444

Chorus:
G:------------------------------------
D:------------------------------------
A:-6666666-5555555--------------------
E:------------------------4444444444--

Bridge:
G:-----------------
D:-----------------
A:----3-------6-5--
E:--6---4---------4

End: (play until fades out)
G:----------------
D:----------------
A:----------------
E:---4-6--4-6--4-6

Song Order:
intro: 2X
riff 1: 4X
chorus: 2X
intro: 5X
riff 1: 3X
chorus: 4X
bridge: 2X
chorus: 4X
end: (till fades out)

easy song, just listen to cd for timeing.
Другие песни: