Goo Goo DollsEyes Wide Open Текст

0 Голосов
Tristan Hoogland

drummer180@hotmail.com
http://ussjlegend.cjb.net/

Goo Goo Dolls - Eyes Wide Open (BASS)

TABBED BY THE FOLLOWING:

Eyes Wide Open by the Goo Goo Dolls

(bass tabbed by Justin and googoodolls@musicfanclubs.org)

Goo Goo Dolls Web Site: The World of Goo

http://www.musicfanclubs.org/googoodolls/index.htmlF# - 2xxx

D - xx0x

A - x0xx

E - 0xxxIntro:

G ----------

D ----------

A ----------

E --1///----G ---------------------------------|---------------------------------

D -0-0-0-0-0-0-0-0-0-0-0-0-0-0-0-0-|---------------------------------

A ---------------------------------|-----------------------------0---

E ---------------------------------|-2-2-2-2-2-2-2-2-2-2-2-2-2-3-----G ---------------------------------|---------------------------------

D -0-0-0-0-0-0-0-0-0-0-0-0-0-0-0-0-|---------------------------------

A ---------------------------------|-0---------------0---------------

E ---------------------------------|---------------------------------Verse:

F# A D A

I'm a fortunate son, of a fortunate son,

F# A E

Living large on the wrong side of town.

F# A D A

Too many friends and the fun never ends,

F# A E

Drinkin' and hangin' around.

F# A D A

I wanna' rule the world, I wanna' swallow it whole.

F# A E

At least I could kick it all down.

G --------------------------------------

D --------------------------------------

A ------9------7-----------5------X-X---

E --------------------------------X-X---

I wanna' kick it all down.Chorus:

(play intro)

Eyes wide open, I can't see.

Eyes wide open, what you mean.

Eyes wide open, I can't seem to be.My eyes wide open, I can't see.

Eyes wide open, what you mean.

Eyes wide open, I can't seem to be.(verse)

I don't take the bus, and I never walked too far,

The furthest I got was my own backyard.

A fist full of cash that somebody else earned,

They sent me some more when it all got burned.

I wanna' take control, I wanna' make it all mine.

At least I could kick it all down.

G -----------------------------------------

D ----------------------------------7------

A ------9------7-----------5-----/5----X-X-

E -------------------------------------X-X-

I wanna' kick it all down.(chorus)

Eyes wide open, I can't see.

Eyes wide open, what you mean.

Eyes wide open, I can't seem to beEyes wide open, I can't see.

Eyes wide open, what you mean.

Eyes wide open, I can't seem to be.Break:

G ----------|---------|---------|----------|---------------

D ----------|---------|---------|----------|---------------

A --4----0--|--4---0--|--4----0-|-4-----0--|---------------

E ----------|---------|---------|----------|--2-2-0-0------



Solo:

G ---------------------------------|---------------------------------

D -0-0-0-0-0-0-0-0-0-0-0-0-0-0-0-0-|---------------------------------

A ---------------------------------|---------------------------------

E ---------------------------------|-2-2-2-2-2-2-2-2-2-2-2-2-2-2-2-2-G ---------------------------------|---------------------------------

D ---------------------------------|-0-0-0-0-0-0-0-0-0-0-0-0-0-0-0-0-

A ---------------------------------|---------------------------------

E -3-3-3-3-3-3-3-3-3-3-3-3-3-3-3-3-|---------------------------------

(play 2x)(verse)

I'll get what I want if I make up my mind

I'm turnin' you inside outI wanna rule the world, wanna swallow it whole

I think I'll just kick it all down.

G --------------------------------------

D --------------------------------------

A ------9------7-----------5------X-X---

E --------------------------------X-X---

I wanna kick it all down.(chorus)

Eyes wide open, I can't see.

Eyes wide open, what you mean.

Eyes wide open, I can't seem to beEyes wide open, I can't see.

Eyes wide open, what you mean.

Eyes wide open, I can't seem to be.Eyes wide open

Eyes wide open

Eyes wide open(fade out)
Другие песни: