Год Змеи10 дней Текст

0 Голосов
Intro:
Em Am G B
2)-----0--------0--------0------------
3)---4---4----2---0----0---0------0---
4)-2--------2--------2----------4---4-
5)----------------------------2-------

Em Am
Я хотел бы жить дольше,
G B
Я хотел бы спеть больше,
E5 A5
Только мир мне стал так тесен -
G5 B5
мне осталось жить дней десять!
Em(VII) Am(V)
Десять дней - это так много
G(III) B(VII)
Даже можно поверить в бога
Em(VII) Am(V)
Не нужна мне милость божья
G5 B5 - B(VII)
мне теперь уже всё можно!

Припев:
Em C
Значит можно,
G Bm
Если мир стал так тесен,
Em C
Значит нужно,
G Bm
Если жить осталось дней десять,
Em C
Значит можно
G Bm
Никого не бояться,
Em(VII) C(III)
Значит нужно
G(III) Bm(VII)
Уходить, чтоб остаться...

Em Am G B
2)-----0--------0--------0------------
3)---4---4----2---0----0---0------0---
4)-2--------2--------2----------4---4-
5)----------------------------2-------

Em Am
Значит можно говорить правду,
G B
Значит можно бить по морде падлу,
E5 A5
Можно рассказать секреты,
G5 B5
Значит можно нарушать запреты.
Em(VII) Am(V)
Значит можно быть тупым и смелым,
G(III) B(VII)
И можно взять ружьё с прицелом,
Em(VII) Am(V)
А потом махнуть в столицу
G5 B5 - B(VII)
Пострелять по известным лицам!

Припев:
Em C
Значит можно,
G Bm
Если мир стал так тесен,
Em C
Значит нужно,
G Bm
Если жить осталось дней десять,
Em C
Значит можно
G Bm
Никого не бояться,
Em(VII) C(III)
Значит нужно
G(III) Bm(VII)
Уходить, чтоб остаться...

Em Am G B
2)-----0--------0--------0------------
3)---4---4----2---0----0---0------0---
4)-2--------2--------2----------4---4-
5)----------------------------2-------

(3-й куплет лучше только перебором, без боя)

Em Am
Не успел я дописать песню,
G B
Мне осталось жить минут десять
E5 A5
Ну а тот, кто ещё дышит,
G5 B5
Эту песню, может быть, допишет
Em(VII) Am(V)
Ну а кто-то, может быть, скажет
G(III) B(VII)
"Эта песня такая лажа!",
Em(VII) Am(V)
Ты поймёшь её тогда, если
G5 B5 - B(VII)
Жить останется дней десять

Припев:
Em C
Значит можно,
G Bm
Если мир стал так тесен,
Em C
Значит нужно,
G Bm
Если жить осталось дней десять,
Em C
Значит можно
G Bm
Никого не бояться,
Em(VII) C(III)
Значит нужно
G(III) Bm(VII)
Уходить, чтоб остаться...
Другие песни: