GobLobster Boy Текст

0 Голосов
Lobster Boy - gob
tabbed by: ryan b

Riff A: (4 times)
A--7777-------2-1----7777-9999------------
E-------2222------4-------------77777777--

Riff B: (once)
A--7777-9999---------
E------------7777-7--

***brief pause, then go into chorus***

Riff C: (twice)
A--22222222-------------------------------
E------------22222222--00000000-22222222--

Riff A: (twice)
Riff B: (once)

***brief pause (drum fill), then again into the chorus***

Riff C: (twice)
Riff A: (once)

Riff D: (once)
A--7777-------2-1----7777-9999-----
E-------2222------4-------------7--
Другие песни: