Ghoti HookTrue Faith Текст

0 Голосов
Artist : Ghoti Hook 

Song : True Faith

+---+---+---+---+---+---+---+
| A | C | G | D | F | B | E*|
+---+---+---+---+---+---+---+
e-| - | - | - | - | - | - | - |
B-| - | - | - | - | - | - | - |
G-| - | 5 | - | 7 | - | 4 | 9 |
D-| 7 | 5 | 5 | 7 | 3 | 4 | 9 |
A-| 7 | 3 | 5 | 5 | 3 | 2 | 7 |
E-| 5 | - | 3 | - | 1 | - | - |
+---+---+---+---+---+---+---+

Intro: After drums
Guitar 1:
e-|-----------------------------------------------------------------|
B-|-----------------------------------------------------------------|
G-|---------4-4-5-5-------------4-4---------4-4-5-5-------------4-5-|
D-|-7-7-7-7---------5-5-5-5-7-7-----7-7-7-7---------5-5-5-5-7-7-----|
A-|-----------------------------------------------------------------|
E-|-----------------------------------------------------------------|

e-|-------------------------------------|
B-|-------------------------6-6-6-6-6-6-|
G-|---------4-4-5-5-7-7-7-7-------------|
D-|-7-7-7-7-----------------------------|
A-|-------------------------------------|
E-|-------------------------------------|
Guitar 2: A C G D (x2) A C G F

Verse:

A F G
I feel so extraordinary
E G
Something's got a hold on me
A F G
I get this feeling I'm in motion
E G B
A sudden sense of liberty
A G
I don't care 'cause I'm not there
F E
And I don't care if I'm here tomorrow
G F
Again and again I've taken too much
E E*
Of the things that cost you too much

Ref:

A C G
I used to think that the day would never come
D A
I'd see the light in the shade of the morning sun
C G
My morning sun is the drug that brings me near
D
To the childhood I lost, replaced by fear
A C G
I used to think that the day would never come
F
That my life would depend on the morning sun...

Verse:

A F G
When I was a very small boy,
E G
Very small boys talked to me
A F G
Now that we've grown up together
E G B
They're afraid of what they see
A G
That's the price that we all pay
F E
Our valued destiny comes to nothing
G F
I can't tell you where we're going
E E*
I guess there was just no way of knowing

Ref: Guitar 1 replays Intro Theme

A C G
I used to think that the day would never come
D A
I'd see the light in the shade of the morning sun
C G
My morning sun is the drug that brings me near
D
To the childhood I lost, replaced by fear
A C G
I used to think that the day would never come
F
That my life would depend on the morning sun...

A C E* D C B A C E* D E* (played clean)

Verse

A F G
I feel so extraordinary
E G
Something's got a hold on me
A F G
I get this feeling I'm in motion
E G B
A sudden sense of liberty
A G
The chances are we've gone too far
F E
You took my time and you took my money
G F
Now I fear you've left me standing
E E*
In a world that's so demanding

Ref: Guitar1 plays Intro Theme

A C G
I used to think that the day would never come
D A
I'd see the light in the shade of the morning sun
C G
My morning sun is the drug that brings me near
D
To the childhood I lost, replaced by fear
A C G
I used to think that the day would never come
D A
I'd see the light in the shade of the morning sun
A C G
I used to think that the day would never come
F
That my life would depend on the morning sun...
Другие песни: