Get Up KidsHigh As The Moon Текст, аккорды

0 Голосов
e/----------------------------------

b/----------------------------------
g/----------------------------------
d/4-4-2-0---------4-4-2-0-----2-4-0-
a/--------2-4-2-0---------2-4-------
e/----------------------------------

e/----------------------------------
b/----------------------------------
g/----------------------------------
d/4-4-2-0---------4-4-4-2-0---------
a/--------2-4-0---------------------
e/--------------3-------------------


tabbed by braden navarre.
hardhitter2007@aol.com
any questions or comments e-mnail me
deuce.
Другие песни: