GarbageSleep Together Текст

0 Голосов
INTRO:
|------------------------19-------|
|-19----19-18-----18-19-----19-18-|
|----16--------16-----------------|
|---------------------------------|
|---------------------------------|
|---------------------------------|

|-------------------------|
|-------------------------|
|-4-----4-----4-----4-----|
|-4--5--4--5--4--5--4--5--|
|-2--5--2--5--2--5--2--5--|
|----3-----3-----3-----3--|

VERSE:
|-------------------------|
|-------------------------|
|-4-----4-----4-----4-----|
|-4--5--4--5--4--5--4--5--|
|-2--5--2--5--2--5--2--5--|
|----3-----3-----3-----3--|

|-------------------------|
|-------------------------|
|-4--------2--4-----2--2--|
|-4--5--2--2--4--5--2--2--|
|-2--5--2--0--2--5--0--0--|
|----3--0--------3--------|

CHORUS:
(Implied chords)
|-0--3--2--0--|
|-0--3--3--1--|
|-0--0--2--0--|
|-2--0--0--2--|
|-2--2-----3--|
|-0--3--------|

Play intro again

VERSЕ 2 - Same

CHORUS 2 - Same

OUTRO - With intro lead
|-0-|
|-0-|
|-0-|
|-2-|
|-2-|
|-0-|
Другие песни: