Frusciante JohnCarvel Текст

0 Голосов
artist: JOHN FRUSCIANTE

song: CARVEL


Bm A G G |
aaaaaa......... | x4


Bm A G G
when I try I force it out

Bm A G G
never looking in only out


D A F#m G
now is the time for millions to lose

D A F#m G
never the same since I lost you


Bm A G G
running me out of town

Bm A G G
wishing the best around


D A F#m G
would only get off my back

D A F#m G
heaven receives you and throws you back

G

A G
sending a dummy to my God | x3

A F#m G
sending a dummy to my God


Bm A G G x4


D A F#m G
driving to eat a carvel cake

D A F#m G F#m
somewhere you know isn't where you think

F#
have you gone away

Bm D A G | x2

Solo 1

e|-------------------------------------------------------------------
B|-------------------------10-12-------------------------------0-----
G|------9-11-9----7-9-7-------------------9-11-9----7-9-7----6-7-----
D|-9-12--------12-------12-----------9-12--------12-------12-7-------
A|-------------------------------------------------------------------
E|-------------------------------------------------------------------


Bm D A G |
have you gone, have you gone away already |
|
Bm D A G | x3
come back, come back, come back, come back |

Bm D A G F#m A
have you gone, have you gone away already

F#m G
all the good times are on their way

Bm D A G | x2

Solo 2:

e|-------------------------------------------------------------------
B|-------------------------10-12-------------------------------------
G|------9-11-9----7-9-7-------------------9-11-9----7-9-7----6/4-----
D|-9-12--------12-------12-----------9-12--------12-------12---------
A|-------------------------------------------------------------------
E|-------------------------------------------------------------------


Bm D A G |
up and down that's how energy stays alive | x2

Bm F#m D G
and I wouldn't have it any other way


D A F#m G |x3



I hope you will enjoy it as much as I do...
Dorthy N
Другие песни: