Frenzal RhombUncle Ken Текст

0 Голосов
song/uncle ken
band/frenzal rhomb
by:troygrech@hotmail.com

verse (this is pretty much all he does here)
G:------
D:------
A:6>-3>-
E:------

chorus
G:-------------------------
D:-------------------------
A:---------------6666-8888-
E:-4444-6666-8888----------

uncle ken is not your friend bit
G:----------
D:----------
A:-6--------
E:---6-88-4-

jesus riff
G:------------------
D:------------------
A:------9-8-------9-
E:4-6-7-----4-6-7---
Другие песни: