Frenzal RhombTheres Your Dad Текст

0 Голосов
frenzal rhomb - THERE'S YOUR DAD bassTAB

tabbed by acid -= acid@uq.net.au =-

intro:
G [------------]
D [-2-0--------]
A [-----2/152-]
E [------------]

verse:
G [------------------------------------------]
D [------------------------------------------]
A [-2--2-0-2--2-0-2-2-2--2--2-0-2--2-0-2-2-2-]
E [------------------------------------------]

second part: into chorus bit:
G [---------------------------] [-----------------]
D [---------------------------] [-----------------]
A [---------------------------] [-----------------]
E [-0-0-0-0-0-0-0-0-0-0-0-0-0-] [-3-3-3-3-3-3-3-3-]

chorus:
G [-------------------------------]
D [-------------------------------]
A [-5-----------------------------]
E [----5--0-0--7---3-3-3-3-5-5-5-5]

DAD:
G [-------------]
D [-------------]
A [-------------]
E [-0--7-7--3-3-]
Другие песни: