Frenzal RhombRun Away Текст, аккорды

0 Голосов
band: Frenzal Rhomb

tabbed by: kimbo
song: Run Away
ok its just quarter notes just don't think its played full fast coz
its not its easy as just go to the beat of the song u shoould be
able to get it if there is anythin wrong ,email us at : frenzal_chikky@weedmail.com
enjoy ppl


verse1

g/----------------------------------------------
d/----------------------------------------------
a/---------1-1-1-1--4-4-4-4--------------------
e/-3-3-3-3------------------3-3-3-3------------

verse/chorus (sorta)
g/----------------------------------------------
d/----------------------------------------------
a/-1-1-1-1--3-3-3-3--1-1-1-1--3-3-3-3--1-1-1-1--3
e/-----------------------------------------------

bridge:
g/---------------------------------------------
d/--------------------------------------------
a/-5--5---5--5----1-3-4-3-1-------------------
e/---5-5----5-5--3---------3------------------

verse1 (2x)
verse/chorus
verse1 (4x)
verse/chorus
bridge(4x)
verse/chorus

ok ok i left something out
at the end of the bridge insted of playing the verse chorus thingy u play this

g/--------------------------------------------------------
d/----------------------------235-3-3-3-3--5--------------
a/-1-1-1-1--3-3-3-3--1-1-1-1-3-------------------------
e/---------------------------------------------
Другие песни: