Frenzal RhombNothings Wrong Текст

0 Голосов
#----------------------------------PLEASE NOTE--------------------------------#

#This file is the author's own work and represents their interpretation of the#
#song. You may only use this file for private study, scholarship, or research.#
#-----------------------------------------------------------------------------#
#-- File created with Instab - http://www.pconline.com/~smcarey/instab.html --#
#-----------------------------------------------------------------------------#

Author/Artist: Frenzal Rhomb
Title: Nothing's Wrong
Album: Shut Your Mouth
Transcribed by: Luke Lundberg
Email: kane_72@hotmail.com

i missed out 1 part that i couldn't figure out. i got all the main parts tho. i just tabbed out the rythem guitar apart from the intro i tabbed out the lead.

------------------------------------------------------------------------------
------------------------------------------------------------------------------
----------------7-7-7-7-7-7---------------------------------------------------
-7-7-7-7-7-7-7----------------------------------------------------------------
------------------------------------------------------------------------------
------------------------------------------------------------------------------
play harmonics of these notes.

------------------------------------------------------------------------------
------------------------------------------------------------------------------
------------------------------------------------------------------------------
-7--4-----7---7--4-----7------------------------------------------------------
-5--2--5--5---5--2--5--5------------------------------------------------------
-------3------------3---------------------------------------------------------
play as many times nesscery.

------------------------------------------------------------------------------
------------------------------------------------------------------------------
------------------------------------------------------------------------------
-4-----7------4---------------------------------------------------------------
-2--5--5--7---2--5--7---------------------------------------------------------
----3-----5------3--5---------------------------------------------------------
p.m.................

------------------------------------------------------------------------------
------------------------------------------------------------------------------
------------------------------------------------------------------------------
-7--4-----7---7--4-----7------------------------------------------------------
-5--2--5--5---5--2--5--5------------------------------------------------------
-------3------------3---------------------------------------------------------
Something wrong, theres something wrong..

------------------------------------------------------------------------------
------------------------------------------------------------------------------
------------------------------------------------------------------------------
------------------------------------------------------------------------------
-4---7----4---7---------------------------------------------------------------
-2---5----2---5---------------------------------------------------------------
after the chorus, repeat intro, then the p.m part, then chorus then this

------------------------------------------------------------------------------
------------------------------------------------------------------------------
------------------------------------------------------------------------------
------------------------------------------------------------------------------
------------------------------------------------------------------------------
------------------------------------------------------------------------------
that's all the parts, after that do the intro-chorus and that's it.
Другие песни: