Frenzal RhombGenius Текст

0 Голосов
Genius - Frenzal Rhomb bass tab 

Tabed By Keatz

Verse 1
G|-----------------------------------------------------|
D|-----------------------------------------------------| x1
A|--------------h3--3-3-3-3-3-3h2--2-2-2-2-2-2-3---5---|
E|0--0-0-0-0-0-0---------------------------------5---3-|

Verse 2
|---------------------------------------------|
|---------------------------------------------| x4
|-------------3333--3--333-2222-2-222-3---5---|
|0000--0--000---------------------------5---3-|

Chorus 1
G|------------------------------------------|--------|
D|------------------------------------------|--------| x1
A|--7777-7-777-10101010-10-101010-----------|--------|
E|--------------------------------8888-8-88-|77777777|

Chorus2 G|----------------------------------------|
D|----------------------------------------|
A|-7777-7-777-10101010-10-101010----------|
E|-------------------------------8888-8-88|
x1
G|----------------|
D|9---------------|
A|----------------|
E|7-7-5-5-3-3-2-2-|
Verse 1 x2

Verse 2 x2

Chorus 1 x1

Chorus 2 x1

Post Chorus
G|----------------|
D|9---------------| x3
A|----------------|
E|7-7-5-5-3-3-2-2-|

BRIDGE
G|----------------|
D|----------------| x1
A|--------1-1-1-1-|
E|1---1-----------|

G|--------------------------------|
D|--------------------------------| x4
A|--------------------------------|
E|------------------------6-5-3-0-|

G|--------------------------------|
D|--------------------------------| x4
A|--------------------------------|
E|0-0-0-0-3-0-0-0-5-0-0-0-6-5-3-0-|

Chorus 2 x1

Chorus 1 x1

Chorus 2 x1

Verse 1 x2

Verse 2 x2

Chorus 1 x1

Chorus 2 x2

Other Riff
G|------------------------------------------|--------|
D|------------------------------------------|--------| x1
A|------------------------------------------|--------|
E|------------------------------------------|77777777|

Chorus 2 x1

Post Chorus x 3

End
G|-|
D|-|
A|-|
E|1|
Другие песни: