Frenzal RhombEverythings Fucked Текст

0 Голосов
#-----------------------------------------------------------------------------#

#-- File created with Instab - http://www.pconline.com/~smcarey/instab.html --#
#-----------------------------------------------------------------------------#

Author/Artist: Frenzal Rhomb
Title: Everything's Fuскеd
Album: Shut Your Mouth
Transcribed by: luке lundberg
Email: каnе_72@hotmail.com

haven't seen any tabs for this song so i decided to tab it myself :-) piss easy
song, remember to figure out how many times the chords r played urself к

------------------------------------------------------------------------------
------------------------------------------------------------------------------
---------7---9---------------7---9--------------------------------------------
-7---4---7---9-------7---4---7---9--------------------------------------------
-7---4---5---7-------7---4---5---7--------------------------------------------
-5---2---------------5---2----------------------------------------------------
can't figure out what he's sayin here, but this is the 1st verse.

------------------------------------------------------------------------------
------------------------------------------------------------------------------
----4--7--9-------------------------------------------------------------------
-4--4--7--9-------------------------------------------------------------------
-4--2--5--7-------------------------------------------------------------------
-2----------------------------------------------------------------------------
got somethin to say, don't say it shout it..

------------------------------------------------------------------------------
------------------------------------------------------------------------------
-------7--9--7--9-------------------------------------------------------------
-7--4--7--9--7--9--7----------------------------------------------------------
-7--4--5--7--5--7--7----------------------------------------------------------
-5--2--------------5----------------------------------------------------------
now everything is, everything is..

------------------------------------------------------------------------------
------------------------------------------------------------------------------
---------7---9----------------7---9-------------------------------------------
-7---4---7---9--------7---4---7---9-------------------------------------------
-7---4---5---7--------7---4---5---7-------------------------------------------
-5---2----------------5---2---------------------------------------------------
can't figure out what jay is sayin here but this is aftr the chorus

------------------------------------------------------------------------------
------------------------------------------------------------------------------
--------7--9--7--9------------------------------------------------------------
--7--4--7--9--7--9--7---------------------------------------------------------
--7--4--5--7--5--7--7---------------------------------------------------------
--5--2--------------5---------------------------------------------------------
now everything is, everything is..

------------------------------------------------------------------------------
------------------------------------------------------------------------------
----4--7--9-------------------------------------------------------------------
-4--4--7--9-------------------------------------------------------------------
-4--2--5--7-------------------------------------------------------------------
-2----------------------------------------------------------------------------
somethin to say, don't say it shout it. вак to chorus and that's it :-)
Другие песни: