Frenzal Rhomb4 Liters Текст

0 Голосов
SONG/4 LITERS
BAND/FRENZAL RHOMB
troygrech@hotmail
INTRO/VERSE
G:---------------------------------
D:13-1-----------------------------
A:----3333-------------------------
E:---------------------------------
FILL
G:---------------------------------
D:---------------------------------
A:11--44--33-3---------------------
E:--44--22-------------------------
CHORUS
G:---------------------------------
D:---------------------------------
A:11-10--6--11-10--8---6-8---------
E:------6-6-------8-8>--8----------
END
G:---------------------------------
D:---------------------------------
A:886----4-33----------------------
E:---8684-2------------------------
Другие песни: