Fm StaticMoment Of Truth tab Текст

0 Голосов
Intro: C#5 - Bb5 - F#5 - G#5 x2

(lead guitar)
e------------------------|
b--6-4---------------4-4-|
g------6--5-6-----6------|
d------------------------|
a------------------------|
E------------------------|

e---------------------------|
b--6-4----------------------|
g------6--5-6-----6---5-----|
d-------------6-----------6-|
a---------------------------|
E---------------------------|

Verse:
C#5 Bb5
Here we are,
F#5 G#5
In the best years of our lives,
C#5
With no way of knowing,
Bb5
When the wheel stops spinning,
F#5 G#5
'Cause we don't know where we're going

C#5 Bb5
And, here we are,
F#5 G#5
On the best day of our lives,
C#5
And it's a go, lets make it last,
Bb5
So cheers you all to that,
F#5 G#5
'Cause this moment's never coming back

Refrain:
C#5
I used to know her brother,
F#5
But I never knew I loved her,
Bb5 G#5
'Till the day she laid her eyes on me,
C#5
Now I'm jumpin' up and down,
F#5
She's the only one around,
Bb5 G#5
And she means every little thing to me.

Chorus:
(lead guitar)
e----4----4----4---4---|
b--------------------4-|
g--6----6----6---------|
d----------------------|
a----------------------|
E----------------------|

e---------------------4-4-------|
b--6-4---6-4---6-4--------6-6-4-|
g------6-----6------------------|
d-------------------------------|
a-------------------------------|
E-------------------------------|

C#5 Bb5
I've got your picture in my wallet,
F#5 G#5
And your phone number to call it,
C#5
And I miss you more,
Bb5 F#5 G#5
Whenever I think about you
C#5 Bb5
I've got your mix-tape in my Walkman,
F#5 G#5
Been so long since we've been talkin',
C#5
And in a few more days,
Bb5 F#5 G#5
We'll both hook up, forever and ever.

Verse:
C#5 Bb5
And here I am,
F#5 G#5
On the west coast of America,
C#5 Bb5 F#5
And I've been tryin' to think for weeks,
G#5
Of all the ways to ask you

C#5 Bb5 F#5
And now I brought you to the place,
G#5 C#5
Where I poured my heart out a million times,
Bb5 F#5 G#5
For a million reasons, to offer it to you

(Repeat Refrain)
(Repeat Chorus)

Adlib: C#5 - Bb5 - F#5 - G#5 x4

(lead guitar)
e------------------------------------|
b--------4-4---6-6---------4-4-------|
g--6-6---------------6-6---------6---|
d----------------------------------6-|
a------------------------------------|
E------------------------------------|

e--------------------------------------------|
b--------4-4---6-6-------------4-------------|
g--6-6---------------8/6---6-6---3---5-5---3-|
d--------------------------------------------|
a--------------------------------------------|
E--------------------------------------------|

e------------------------------------|
b--------4-4---6-6---------4-4-------|
g--6-6---------------6-6---------6---|
d----------------------------------6-|
a------------------------------------|
E------------------------------------|

e--------------------------------------------|
b--------4-4---6-6-------------4-------------|
g--6-6---------------8/6---6-6---3---5-5---3-|
d--------------------------------------------|
a--------------------------------------------|
E--------------------------------------------|

(Repeat Refrain)
(Repeat Chorus)
Другие песни: