FlёurРай на полчаса Текст

0 Голосов
Вступление: (играется вместе с аккордами припева)	
E|-------------------------|-----------------------|
B|-------------------------|-----------------------|
G|--7--9--9--11----11------|--6--7--6--7----7------|

E|-------------------------10--|----------------|---------------------------|
B|-----------------------------|----------------|---------------------------|
G|--9--11--11--12----12--------|--12--11--------|--11-9-7--9--11----11------|

E|-----------------------|-------------------------|------------------||
B|-----------------------|-------------------------|------------------||
G|--6--7--6--7----7------|--9--11--11--12----12----|--12---/11--------||

Bm
Мы с тобою станем
G
Ярким огненным вихрем,
Bm
На мгновенье станем
G
Ярким огненным вихрем.

Bm
Это плата за рай,
F#
Что был нами украден
G E
На полчаса.

Bm
Мы с тобой будем пить
G
Отравленный воздух,
Bm
И в ответ на удар
G
мы лишь рассмеемся.

Bm
Мы превысили скорость, мы обречены.
F#
Нас уже не спасти,
G E
мы не вернемся.

D
Это плата за рай
Bm
На полчаса.
G
Нам на встречу в машинах летят
Em F#m
Изумленные лица.

D
Это плата за рай,
Bm
На полчаса,
G
Это наш с тобой маленький
F#m
Апокалипсис.

Bm
Ты меня научил
G
Не бояться страданий,
Bm
Уходить, не дождавшись
G
Аплодисментов.

Bm
Пусть взрываются звезды
F#
За преступность желаний,
G E
Лишь бы ты был со мной
G E
За секунду до смерти.

D
Это плата за рай
Bm
На полчаса.
G
Нам на встречу в машинах летят
Em F#m
Изумленные лица.

D
Это плата за рай,
Bm
На полчаса,
G
Это наш с тобой маленький
F#m
Апокалипсис.
Другие песни: