Five Finger Death PunchWicked Ways Текст, аккорды

0 Голосов
Intro:
4)-3-2-0--4--4---4--4--0-2-3--3-2-0--4--4---4--4--0-2-3--3-2-0--4--4---4--4--0-2-3--3-2-0--4--4--3-2-0--4--4-
5)--------2--2---2--2----------------2--2---2--2----------------2--2---2--2----------------2--2---------2--2-

Verse: x2
B5 A5 / B5 B5 / C5 C5 / B5 B5 / A5 A5 / B5 B5 / C5
4)-3-2-0--4--4---4--4--0-2-3-|-7/9--9/10-10/9-9/7--7/9--9/10-
5)--------2--2---2--2--------|-x-x--x-x--x-x--x-x--x-x--x-x--
6)---------------------------|-5/7--7/8--8/7--7/5--5/7--7/8--
x3

Verse:
B5 B5
I should have seen this from a mile away
B5 A5 B5 B5 C5 C5 B5 B5 A5 A5 B5 B5 C5
I should've never let you get that deep inside
B5 B5
You're an actress I can't believe a word
B5 A5 B5 B5 C5 C5 B5 B5 A5 A5 B5 B5 C5
You'd say anything to get anywhere in life
A B / G#m 3)-2-1-----
Stumble back to where you came from 4)-----4-2-

Chorus:
F#m / E C#m / D
Wide awake and falling on your face
F#m / E
You've got an evil wicked way
A / Bm
Of saying I love you, I'd love to
F#m / E C#m / D
Tear away from everything you are
F#m / E
You've got an evil wicked way
A / Bm
About you, I hate you!

Verse:
B5 B5
Like a virus that spread throughout my veins
B5 A5 B5 B5 C5 C5 B5 B5 A5 A5 B5 B5 C5
You're incurable and such a waste of time
B5 B5
You're an angel, but only in your head,
B5 A5 B5 B5 C5 C5 B5 B5 A5 A5 B5 B5 C5
You'd hurt anyone to get anything in life
A B / G#m 3)-2-1-----
Slither back to where you came from 4)-----4-2-

Chorus:
F#m / E C#m / D
Wide awake and falling on your face
F#m / E
You've got an evil wicked way
A / Bm
Of saying I love you, I'd love to
F#m / E C#m / D
Tear away from everything you are
F#m / E
You've got an evil wicked way
A / Bm
About you, I hate you!

Bridge:
C#5 D5
4)-6--6-6-6-6-6--6-6-6-6-6-7-
5)-4--4-4-4-4-4--4-4-4-4-4-5-

C#m
Who do you think you are?
C#m
Who do you think you are?
C#m
Who do you think you are?
C#m
Who do you think you are?
C#m
Who do you think you are? (so cold)
C#m
Who do you think you are? (so cold)
C#m
Who do you think you are? (so cold)
C#m
Who do you think you are?

Chorus:
F#m / E C#m / D
Wide awake and falling on your face
F#m / E
You've got an evil wicked way
A / Bm
Of saying I love you, I'd love to
F#m / E C#m / D
Tear away from everything you are
F#m / E
You've got an evil wicked way
A / Bm
About you, I hate you!

Outro:
C#5 D5
4)-6--6-6-6-6-6--6-6-6-6-6-7-
5)-4--4-4-4-4-4--4-4-4-4-4-5-

C#m
Who do you think you are?
C#m
Who do you think you are?
C#m
Who do you think you are?
C#m
Who do you think you are?
Другие песни: