Five Finger Death PunchI Apologize (на русском) Текст

0 Голосов
Dm F C G 
1)--1---------1---------0---------3-3-3-3-3--
2)--3--3-1----1--3-1----1--1-0----0-0-0-0-0--
3)--2---------2---------0---------0-0-0-0-0--
4)--0---------3---------2---------0-0-0-0-0--
5)------------3---------3---------2-2-2-2-2--
6)------------1-------------------3-3-3-3-3--

Verse:
Dm F C G
Однажды тени окружат меня
Dm F C G
Рано или поздно дни придут к концу
Dm F C G
Настанет час,когда я столкнусь с настоящим собой
Dm F C G
И так или иначе мне придется научиться прогибаться
Bb С A
И теперь я вижу ясно:

Chorus:
Dm F C G
Все это время я просто делал шаг в сторону
Dm F
Смотрел, но никогда не слушал
C G
Как целый мир проходит мимо меня
Dm F C G
Все это время я смотрел со стороны
Dm F C G
И не понимал,что правильно,а что -нет
Dm
Я прошу прощения...
F C G
(Оо-оу Оо-оу Оо-оу)
Dm F C G
(Оо-оу Оо-оу Оо-оу)

Verse:
Dm F C G
Однажды я столкнусь с адом внутри меня
Dm F C G
Когда-нибудь я смирюсь с тем,что наделал
Dm F C G
Придет время,когда я оставлю прошлое позади,
Dm F C G
А сейчас я принимаю то,чем я стал.
Bb С A
И теперь я вижу ясно:

Chorus:
Dm F C G
Все это время я просто делал шаг в сторону
Dm F
Смотрел, но никогда не слушал
C G
Как целый мир проходит мимо меня
Dm F C G
Все это время я смотрел со стороны
Dm F C G
И не понимал,что правильно,а что -нет
Dm
Я прошу прощения...

Проигрыш: Dm F C G

Dm F C G
Однажды тени окружат меня

Chorus:
Dm F C G
Все это время я просто делал шаг в сторону
Dm F
Смотрел, но никогда не слушал
C G
Как целый мир проходит мимо меня
Dm F C G
Все это время я смотрел со стороны
Dm F C G
И не понимал,что правильно,а что -нет
Dm
Я прошу прощения...
Dm F C G
(Оо-оу Оо-оу Оо-оу)
Dm
Я прошу прощения
Dm F C G
(Оо-оу Оо-оу Оо-оу)
Dm
Я прошу прощения
Dm F C G
(Оо-оу Оо-оу Оо-оу)
Dm
Я прошу прощения
Dm
Я прошу прощения

Outro=Intro:
Dm F C G
1)--1---------1---------0---------3-3-3-3-3-
2)--3--3-1----1--3-1----1--1-0----0-0-0-0-0-
3)--2---------2---------0---------0-0-0-0-0-
4)--0---------3---------2---------0-0-0-0-0-
5)------------3---------3---------2-2-2-2-2-
6)------------1-------------------3-3-3-3-3-
Другие песни: