Five Finger Death PunchBlue On Black Текст

0 Голосов
Intro:
Dm C / G
3)-----7----------7---------5--4----------
4)---7---7------7---------5-------5---5/3-
5)-5--------3/5-----0-2-3-----------5-----
6)-----------------------------3----------

Verse:
Dm C / G Dm C / G
Night falls and I'm alone
Dm C / G Dm C / G
Skin, yeah, chilled me to the bone
Dm C / G Dm C / G
You turned and you ran, oh yeah
Dm C / G Dm C / G
Oh slipped right from my hand (Yeah!)

Chorus:
Dm
Blue on black, tears on a river
C / G
Push on a shove it don't mean much
Dm
Joker on jack match on a fire
C / G
Cold on ice a dead man's touch
Dm
Whisper on a scream
C / G
Never change a thing
A C
Doesn't bring you back,
Dm
It's like blue on black

Dm C / G
3)-----7----------7---------5--4----------
4)---7---7------7---------5-------5---5/3-
5)-5--------3/5-----0-2-3-----------5-----
6)-----------------------------3----------

Verse:
Dm C / G Dm C / G
Blind, oh, but now I see
Dm C / G Dm C / G
Truth, lies and in between
Dm C / G Dm C / G
Wrong can't be undone, oh no
Dm C / G Dm C / G
Well it slipped from the tip of your tongue (Yeah)

Chorus:
Dm
Blue on black, tears on a river
C / G
Push on a shove it don't mean much
Dm
Joker on jack match on a fire
C / G
Cold on ice a dead man's touch
Dm
Whisper on a scream
C / G
Never change a thing
A C
Doesn't bring you back,
Dm
It's like blue on black

Bridge: Dm F Gm A# / C
A# / C } x3
Dm

Chorus:
Dm C / G
3)-----7----------7---------5--4----------
4)---7---7------7---------5-------5---5/3-
5)-5--------3/5-----0-2-3-----------5-----
6)-----------------------------3----------
Dm
Blue on black, tears on a river
C / G
Push on a shove it don't mean much

Dm
Blue on black, tears on a river
C / G
Push on a shove it don't mean much
Dm
Joker on jack match on a fire
C / G
Cold on ice a dead man's touch
Dm
Whisper on a scream
C / G
Never change a thing
A C
Doesn't bring you back,
Dm
It's like blue on black
C / G Dm
Yeah, blue on black
C / G Dm
Yeah, it's blue on black
C / G Dm C / G
Yeah, blue on black
Другие песни: