FFDPHell To Pay Текст

0 Голосов
Intro: x8
B5 / C#5 D5
4)-4/6-6--6-6-6-6--7-7-7-7--4/6-6--6-6-6-6--7-7-7-7--4/6-6--6-6-6-6--7-7-7-7--4/6-6--6-6-6-6--7-7-7-7-
5)-2/4-4--4-4-4-4--5-5-5-5--2/4-4--4-4-4-4--5-5-5-5--2/4-4--4-4-4-4--5-5-5-5--2/4-4--4-4-4-4--5-5-5-5-
V v ^ ^ v v ^ v ^ V v ^ ^ v v ^ v ^ V v ^ ^ v v ^ v ^ V v ^ ^ v v ^ v ^

Verse:
B5 / C#5 D5
Feels like I'm running in place
B5 / C#5 D5
A past I can't erase
B5 / C#5 D5
I'm breaking, breaking apart
B5 / C#5 D5
(I know they're after me)
B5 / C#5 D5
It's like I'm fading each day
B5 / C#5 D5
They took it all away
B5 / C#5 D5
Left nothing, nothing but scars
B5 / C#5 D5
(They make it hard to breathe)

Pre-Chorus:
G F# /
Don't know where it went wrong
Em D
But my love for this is gone

Chorus:
Bm
I tried to numb the pain
Bm
But I can't get away
G Em
Hiding behind this disguise
Bm
The games I had to play
Bm
The hell I had to pay
G Em
Everything comes with a price

Guitar 1:
B5 / C#5 D5
4)-4/6-6--6-6-6-6--7-7-7-7--4/6-6--6-6-6-6--7-7-7-7--4/6-6--6-6-6-6--7-7-7-7--4/6-6--6-6-6-6--7-7-7-7-
5)-2/4-4--4-4-4-4--5-5-5-5--2/4-4--4-4-4-4--5-5-5-5--2/4-4--4-4-4-4--5-5-5-5--2/4-4--4-4-4-4--5-5-5-5-
V v ^ ^ v v ^ v ^ V v ^ ^ v v ^ v ^ V v ^ ^ v v ^ v ^ V v ^ ^ v v ^ v ^

Guitar 1:
1)---4---5---4-------4---5---4-------4---5---4-------4---5---4---
2)-2---2---2---2---2---2---2---2---2---2---2---2---2---2---2---2-

Verse:
B5 / C#5 D5
You're waiting for me to fail
B5 / C#5 D5
That ship will never sail
B5 / C#5 D5
Keep pulling and pushing me down
B5 / C#5 D5
(But I just won't let go)
B5 / C#5 D5
I know you wish I was dead
B5 / C#5 D5
I'm stuck inside your head
B5 / C#5 D5
I'm taking and breaking your crown
B5 / C#5 D5
(I'm better left alone)

Pre-Chorus:
G F# /
Don't know where it went wrong
Em D
But my love for this is gone

Chorus:
Bm
I tried to numb the pain
Bm
But I can't get away
G Em
Hiding behind this disguise
Bm
The games I had to play
Bm
The hell I had to pay
G Em
Everything comes with a price

4)---4---5---4-------4---5---4-------4---5---4----
5)-2---2---2---2---2---2---2---2---2---2---2---2--
GO!

4)-4--7/6--4--7/6--4--7/6--4--7/6-| x6
5)-2--5/4--2--5/4--2--5/4--2--5/4-|

Guitar 2:
1)---4---5---4---
2)-2---2---2---2-

Chorus:
Bm
I tried to numb the pain
Bm
But I can't get away
G Em
Hiding behind this disguise
Bm
The games I had to play
Bm
The hell I had to pay
G Em
Everything comes with a price

Outro:
4)-4--7/6--4--7/6--4--7/6--4--7/6-| x2
5)-2--5/4--2--5/4--2--5/4--2--5/4-|
Другие песни: