Faith No MoreGet Out Текст

0 Голосов
Get Out

by Faith No More
From the album King For A Day/Fool For A Lifetime
(C) 1995 Big Thrilling Music/Give Us Our Publishing (ASCAP)
transcribed for guitar by PINTER Denes (dpinter@eik.bme.hu)
bass part arranged from guitar part by Joe White

h w h Q e e e e e e e e e 5x w h e e e e +e e q e e q
-----||--r-|-r-r---|-----------3-r----||-r-|-r---------||--------------|
4:---||*-e-|-e-e---|---4---------e-2-*||-e-|-e---------||*-------------|
4:-4||*-s-|-s-s---|-0---3---4---s---*||-s-|-s-0-0-3-4-||*-4-4-4-4-4-4-|
-----||--t-|-t-t-0-|-------0-----t----||-t-|-t---------||--------------|

e e q e e e e 3x+q+q Q e +e e e e e e e e e e e e e e e e
|----------------||---------||------------------|--------------------|
|---------------*||---------||*-----------------|-----------------2:-|
|-4-4-4-0-0-3-4-*||-4-4/----||*-----------------|-----------------4:-|
|----------------||-----3-2-||--2-2-2-2-2-2-2-2-|-2-2-2-2-2-2-2-0----|

e e e e 3x+h h w h Q e e e e e e e e e 4x H e e +e e q e e q
|-------------||-----||--r-|-r-r---|-----------3-r----||-r-r---||--------------|
|---------4:-*||-----||*-e-|-e-e---|---4---------e-2-*||-e-e---||*-------------|
|---------4:-*||---4||*-s-|-s-s---|-0---3---4---s---*||-s-s-4-||*-4-4-4-4-4-4-|
|-3-3-3-2-----||-2---||--t-|-t-t-0-|-------0-----t----||-t-t---||--------------|

e e q e e e e 3x+q+q Q e +e e e e e e e e e e e e e e e e
|----------------||---------||------------------|--------------------|
|---------------*||---------||*-----------------|-----------------2:-|
|-4-4-4-0-0-3-4-*||-4-4/----||*-----------------|-----------------4:-|
|----------------||-----3-2-||--2-2-2-2-2-2-2-2-|-2-2-2-2-2-2-2-0----|

e e e e 3x+e e e e e e e e e e e e e e e e e e e e
|-------------||-----------------|--------------------|------------|
|---------4:-*||-----------------|-----------------2:-|---------4:-|
|---------4:-*||-----------------|-----------------4:-|-0-0-3-4-4:-|
|-3-3-3-2-----||-2-2-2-2-2-2-2-2-|-2-2-2-2-2-2-2-0----|------------|

+e e e e e e e e e e e e e e e e e e e e e e e e 3x
||------------------|-----------------|------------------||
||*-----------------|-----------------|-----------------*||
||*-4-4-4-4-4-4-4-4-|-4-4-4-4-4-4-4-4-|-4-4-4-4-0-0-3-4-*||
||------------------|-----------------|------------------||

+e e e e e e e e e e e e e e e e e e q e e e e +q+q Q e
|-----------------------|-------------------------|------------------|---------|
|-----11-11-11-11-11-11-|-11-11-11-11-11-11-11-11-|-11-11-11--------|---------|
|-4-4/------------------|-------------------------|----------0-0-3-4-|-4-4/----|
|-----------------------|-------------------------|------------------|-----3-2-|

+e e e e e e e e e e e e e e e e e e e e 7x+h h
||------------------|--------------------|-------------||-----||
||*-----------------|-----------------2:-|---------4:-*||-----||
||*-----------------|-----------------4:-|---------4:-*||---4||
||--2-2-2-2-2-2-2-2-|-2-2-2-2-2-2-2-0----|-3-3-3-2-----||-2---||
Другие песни: