EvanescenceTourniquet Текст

0 Голосов
#----------------------------------PLEASE NOTE---------------------------------#

#This file is the author's own work and represents their interpretation of the #
#song. You may only use this file for private study, scholarship, or research. #
#------------------------------------------------------------------------------##


Gtr I (E A D G B E) - 'Evanescence - Tourniquet'


Gtr I Intro, Chorus
|-------------------------|
|-------------------------|
|-9-9-9-12-9-9-9-11--7----|
|-------------------------|
|-7-7-7-10-7-7-7--9--5----|
|-------------------------|

Lick after the main riff
|------------------------------|
|------------------------------|
|-14-12h14p12-11-14-12-11-9----|
|------------------------------|
|------------------------------|
|------------------------------|

Verse
|----------|
|----------|
|-9---7----|
|----------|
|-7---5----|
|----------|



***************************************************************************************
* Generated using Power Tab Editor by Brad Larsen - http://powertab.guitarnetwork.org *
***************************************************************************************
Другие песни: