EuropeWings of tomorrow Текст

0 Голосов
Intro:
E||---------------------------|-----------------------|
B||---------------------------|-----------------------|
G||---------------------------|-----------------------|
D||-----5-5-5--4--5-------5-5-|--5--4--5----2----2----|
A||-----7-7-7--5--7-------7-7-|--7--5--7----4----3----|
E||--0-----------------0------|-----------------------|



---------------------------|-----------------------|---------------------------|
---------------------------|-----------------------|---------------------------|
---------------------------|-----------------------|---------------------------|
-----5-5-5--4--5-------5-5-|--5--4--5----2----2----|-----5-5-5--4--5----5--5-5-|
-----7-7-7--5--7-------7-7-|--7--5--7----4----3----|-----7-7-7--5--7----7--7-7-|
--0-----------------0------|-----------------------|--0------------------------|



-----------------------|---------------------------|-----------------------|
-----------------------|---------------------------|-----------------------|
-----------------------|---------------------------|-----------------------|
--5--4--5----2----2----|-----5-5-5--4--5----5--5-5-|--5--4--5----2----2----|
--7--5--7----4----3----|-----7-7-7--5--7----7--7-7-|--7--5--7----4----3----|
-----------------------|--0------------------------|-----------------------|


Verse:
|----------------------------|-----------------------|
|----------------------------|-----------------------|
|---------------------------|-----------------------|
|-----5-5-5--4--5----5--5-5-|--5--4--5----2----2----|
|------7-7-7--5--7----7--7-7-|--7--5--7----4----3----|
|---0------------------------|-----------------------|



---------------------------|-----------------------|---------------------------|
---------------------------|-----------------------|---------------------------|
---------------------------|-----------------------|---------------------------|
-----5-5-5--4--5----5--5-5-|--5--4--5----2----2----|-----5-5-5--4--5----5--5-5-|
-----7-7-7--5--7----7--7-7-|--7--5--7----4----3----|-----7-7-7--5--7----7--7-7-|
--0------------------------|-----------------------|--0------------------------|



-----------------------|---------------------------|-----------------------|
-----------------------|---------------------------|-----------------------|
-----------------------|---------------------------|-----------------------|
--5--4--5----2----2----|-----5-5-5--4--5----5--5-5-|--5--4--5----2----2----|
--7--5--7----4----3----|-----7-7-7--5--7----7--7-7-|--7--5--7----4----3----|
-----------------------|--0------------------------|-----------------------|



--------------------------|--------------------------|
--------------------------|--------------------------|
--------------------------|--------------------------|
--------------------------|--------------------------|
--3--3-3-3--2--3---3-3----|--5--5-5-5--4--5---5-5----|
--5--5-5-5--3--5---5-5----|--7--7-7-7--5--7---7-7----|



--------------------------|--------------------------|
--------------------------|--------------------------|
--------------------------|---------9-----------9----|
--------------------------|---------9-----------9----|
--7--7-7-7--5--7---7-7----|---------7-----------7----|
--8--8-8-8--7--8---8-8----|--0--0-0------0--0-0------|






--------------------------|--------------------------|
--------------------------|--------------------------|
--------------------------|--------------------------|
--------------------------|--------------------------|
--3--3-3-3--2--3---3-3----|--5--5-5-5--4--5---5-5----|
--5--5-5-5--3--5---5-5----|--7--7-7-7--5--7---7-7----|


Chorus:
--------------------------|--------------------------|-------------------------|
--------------------------|--------------------------|-------------------------|
--------------------------|--7--7--7--7--7--7--7--7--|--9------6--6--6-6-6--5--|
--------------------------|--7--7--7--7--7--7--7--7--|--9------7--7--7-7-7--5--|
--7--7-7-7--5--7---7-7----|--5--5--5--5--5--5--5--5--|--7------4--4--4-4-4--3--|

--8--8-8-8--7--8---8-8----|--------------------------|-------------------------|



------------------------|-------------------------|------------------------|
------------------------|-------------------------|------------------------|
--5--5-5-5----2--2------|--9------6--6--6-6-6--5--|--5--5-5-5----2--2------|
--5--5-5-5----2--2------|--9------7--7--7-7-7--5--|--5--5-5-5----2--2------|
--3--3-3-3----0--0------|--7------4--4--4-4-4--3--|--3--3-3-3----0--0------|
------------------------|-------------------------|------------------------|



-------------------------|------------------------|-------------------------|
-------------------------|------------------------|-------------------------|
--9------6--6--6-6-6--5--|--5--5-5-5----2--2------|--9------6--6--6-6-6--5--|
--9------7--7--7-7-7--5--|--5--5-5-5----2--2------|--9------7--7--7-7-7--5--|
--7------4--4--4-4-4--3--|--3--3-3-3----0--0------|--7------4--4--4-4-4--3--|
-------------------------|------------------------|-------------------------|



-------------------------||-------------------------|------------------------|
-------------------------||-------------------------|------------------------|
--5--5-5-5----2--2------||--9------6--6--6-6-6--5--|--5--5-5-5----2--2------|
--5--5-5-5----2--2------||--9------7--7--7-7-7--5--|--5--5-5-5----2--2------|
--3--3-3-3----0--0-------||--7------4--4--4-4-4--3--|--3--3-3-3----0--0------|
-------------------------||-------------------------|------------------------|



-------------------------|------------------------|-------------------------|
-------------------------|------------------------|-------------------------|
--9------6--6--6-6-6--5--|--5--5-5-5----2--2------|--9------6--6--6-6-6--5--|
--9------7--7--7-7-7--5--|--5--5-5-5----2--2------|--9------7--7--7-7-7--5--|
--7------4--4--4-4-4--3--|--3--3-3-3----0--0------|--7------4--4--4-4-4--3--|
-------------------------|------------------------|-------------------------|



------------------------|-------------------------|------------------------|
------------------------|-------------------------|------------------------|
--5--5-5-5----2--2------|--9------6--6--6-6-6--5--|--5--5-5-5----2--2------|
--5--5-5-5----2--2------|--9------7--7--7-7-7--5--|--5--5-5-5----2--2------|
--3--3-3-3----0--0------|--7------4--4--4-4-4--3--|--3--3-3-3----0--0------|
------------------------|-------------------------|------------------------|

Solo:


-------------------|-------------------|-------------------|
-------------------|-------------------|-------------------|
--2b---------------|--2b---------------|--2b---------------|
-------------------|-------------------|-------------------|
-------------------|-------------------|-------------------|
-------------------|-------------------|-------------------|

-------------------------------------------------------------|
-------------------------------------------------------------|
-------------------------------------------------------------|
-------------------------------------4-6-7-6-4-6-7-6-4-6-7-6-|
-----4-6-7-4-6-7-7-6-4-4-6-7-6-4-6-7-------------------------|
--7/---------------------------------------------------------|



------------------------------------------------------------------|
------------------------------------------------------------------|
------------------------------------------------4-6-7-----4-6-----|
--4-6-7-6-4-6-7-6-4-6-6-4-6-7-6-7-6-7-6-4-6-7-7-------4-6-----4-6-|
------------------------------------------------------------------|
------------------------------------------------------------------|



------------------------------------------------------------------|
------------------------------------------------------------------|
--4-4-4-6-7-6-4-4-4-4-4-4-6-7-6-4-4-4-4-6-7-6-4-4-6-7-6-4-4-4-6-7-|
------------------------------------------------------------------|
------------------------------------------------------------------|
------------------------------------------------------------------|



----------------------------------------|----------------------------------|
----------------------------------------|--15b-----15----13-15-13-12--13---|
--4-6-----6-7-6-4-6-4-----6-4--6-4-4~---|----------------------------------|
------6-4---------6---4-6---------------|----------------------------------|
----------------------------------------|----------------------------------|
----------------------------------------|----------------------------------|



-----------------------------------|--------------------------------|
--15--------------12--13--12-13-12-|----------15r-------------------|
--------12~---14-------------------|--14--12--------14--12--14--12--|
-----------------------------------|--------------------------------|
-----------------------------------|--------------------------------|
-----------------------------------|--------------------------------|



--------------------|----------------------------------|
--------------------|--15b-----15----13-15-13-12--13---|
--11--12------------|----------------------------------|
----------14~-------|----------------------------------|
--------------------|----------------------------------|
--------------------|----------------------------------|



-----------------------------------|------------------------------------|
--15--------------12--13--12-13-12-|------------------------------------|
--------12~---14-------------------|--14--12--11--12--11------14--14-14-|
-----------------------------------|----------------------12--14--14-14-|
-----------------------------------|------------------------------------|
-----------------------------------|------------------------------------|



---------------------14-15-14-12----|-------------------------------------|
------14b---14----12-------------12-|-------------------------------------|
--14--14b---14----------------------|--14-12----14------------------------|
--14--------------------------------|--------14----12-14-12---------------|
------------------------------------|------------------------14--7~-------|
------------------------------------|-------------------------------------|
Другие песни: