Eskimo ToccataNever Say Never Текст

0 Голосов
NEVER SAY NEVER (BUT PROBABLY NEVER)
BY ESKIMO TOCCATA (ROGERSON/GLYNN)
TABBED BY BRYSON GORE

VERSE X4
|-------------------------------------------|
|-------------------------------------------|
|-------------------------------5-5-5-3-3-3-|
|-5-5-5-5-5-0-0-0-0-0-3-3-3-3-3-------------|

THEN... X2
|-------------------------------------------|
|-------------------------------------------|
|-------------------------------------3-3-3-|
|-1-1-1-1-1-5-5-5-5-5-1-1-1-1-1-3-3-3-------|

CHORUS X8
|---------------------------------|
|---------------------------------|
|-2-2-2-2-5-5-5-5---------------0-|
|-----------------3-3-3-3-5-5-5---|

BRIDGE
|-----------------------------------------------------------------|
|-----------------------------------------------------------------|
|-5-5-5-5-5-5-5-5-0-0-0-0-0-0-0-0-5-5-5-5-5-5-5-5-7-7-7-7-7-7-7-7-|
|-----------------------------------------------------------------|

|-----------------------------------------------------------------|
|-----------------------------------------------------------------|
|-5-5-5-5-5-5-5-5-0-0-0-0-0-0-0-0-5-5-5-5-5-5-5-5-3-----3-----3-2-|
|---------------------------------------------------0-0---0-0-----|
Другие песни: