Eskimo ToccataIts Not Important Текст

0 Голосов
ITS NOT IMPORTANT

BY ESKIMO TOCCTA (GLYNN)
TABBED BY BRYSON GORE

VERSE
|-------------------------------------------|
|-------------------------------------------|
|-------------------------------6-6-6-3-3-3-|
|-4-4-4-4-4-2-2-2-2-2-4-4-4-4-4-------------|

CHORUS
|-------------------------------------|
|-------------------------------------|
|-1--1-1-1----------3--3-3-3-1--1-1-1-|
|----------2--2-2-2-------------------|

|-----------------------------------------|
|-----------------------------------------|
|-1--1-1-1--------------------6-6-6-3-3-3-|
|----------2--2-2-2-4-4-4-4-4-------------|
ITS THAT SIMPLE
Другие песни: