EntombedFull Of Hell Текст

0 Голосов
ENTOMBED 

Full of hell
>From Wolverine Blues


Tune down 2 steps (C,F,A#,D#,G,C)


Riff 1

|-------------------------|---------------------------|
|-------------------------|---------------------------|
|-------------------------|---------------------------|
|-------------------------|----------------5-8-7-5h7--|
|-2----5/7-5-2-5-8-7-5-7--|-2----5/7-5---7------------|
|-0-00-3/5-3-0-3-6-5-3-5--|-0-00-3/5-3-0--------------|
.. .. .

|-------------------------|---------------------------|
|-------------------------|---------------------------|
|-------------------------|------------8-8-8-9-9-9-9--|
|-------------------------|------------8-8-8-9-9-9-9--|
|-2----5/7-5-2-5-8-7-5-7--|-2----5/7-5-6-6-6-7-7-7-7--|
|-0-00-3/5-3-0-3-6-5-3-5--|-0-00-3/5-3----------------|
.. ..

Play this part at |-----------------------------------------|
the end of the song |-----------------------------------------|
|----------------8-----8-----8----9-(9)--|
|----------------8-----8-----8----9-(9)--|
|-2----5/7-5-----6-----6-----6----7-(7)--|
|-0-00-3/5-3-000---000---000---00---------|
.. ... ... ... ..

Riff 2

|--------------------------|--------------------------|
|--------------------------|--------------------------|
|--------------------------|--------------------------|
|--------------------------|--------------------------|
|-2-2-2-2-3---2-2-2-2-3/5--|-2-2-2-2-3--2--2-2-2-3/5--|
|-0-0-0-0-1---0-0-0-0-1/3--|-0-0-0-0-1--0--0-0-0-1/3--|
. . . . . . . . . . . . . . . .

Riff 3

1.2. 3.
|---------------------------------------------|--------------------------|
|---------------------------------------------|--------------------------|
|---------------------------------------------|--------------------------|
|---------------------------------------------|--------------------------|
|-5-5-5-5-5-5-5-5-3---3-5--------/9-------/9--|-5-5-5-5-5-5-5-5-8---2-5--|
|-3-3-3-3-3-3-3-3-1---1-3--00-0--/7--00-0-/7--|-3-3-3-3-3-3-3-3-6---0-3--|
. . . . . . .. . .. . . . . . . .

There is also a variant of this riff

1.2. 3.4.
5.
|---------------------------------------------|-----------------------------
---------------|--------------------------|
|---------------------------------------------|-----------------------------
---------------|--------------------------|
|---------------------------------------------|-----------------------------
---------------|--------------------------|
|---------------------------------------------|-----------------------------
---------------|--------------------------|
|-5-5-5-5-5-5-5-5-3---3-5--------/9-------/9--|-5-5-5-5-5-5-5-5-8---3-5-----
--/9-------/9--|-5-5-5-5-5-5-5-5-8---2-5--|
|-3-3-3-3-3-3-3-3-1---1-3--00-0--/7--00-0-/7--|-3-3-3-3-3-3-3-3-6---1-3--00-
0-/7--00-0-/7--|-3-3-3-3-3-3-3-3-6---0-3--|
. . . . . . .. . .. . . . . . . . ..
. .. . . . . . . .

Riff 4

|---------------------|
|---------------------|
|---------------------|
|---------------------|
|-7---5--8--2---5--3--|
|-5---3--6--0---3--1--|

Riff 5

|-----------------------------|
|-----------------------------|
|-----------------------------|
|-----------------------------|
|-7-7---5-5-5-8-8-8-2---5--3--|
|-5-5---3-3-3-6-6-6-0---3--1--|
. . . . . .

Riff 6

|------------------------------------------------------|--------------------
-------------------------------|
|------------------------------------------------------|--------------------
-------------------------------|
|------------------------------------------------------|--------------------
-------------------------------|
|------------------------------------------------------|--------------------
-------------------------------|
|-7-7-7-7-7-7-7-7-5--5-7--8-7-5-2-5-3-2-2--2-2-2-5/7-7-|-7-7-7-7-7-7-7-7-5--
5-7--8-7-5-2-5-3-2-2--2-2-2-5~-|
|-5-5-5-5-5-5-5-5-3--3-5--6-5-3-0-3-1-0-0--0-0-0-3/5-5-|-5-5-5-5-5-5-5-5-3--
3-5--6-5-3-0-3-1-0-0--0-0-0-3~-|
. . . . . . . . . . . . . . . . . . . . . . .
. . . . . . . . . . .

|---------------------------|
|---------------------------|
|---------------------------|
|---------------------------|
|-7-7-7-7-7-7-7-7-10---2-5--|
|-5-5-5-5-5-5-5-5-8----0-3--|
. . . . . .


Structure

Riff1 x2
Riff2 x4
Riff3
Riff1
Riff2 x4
Riff3 variant
Riff1
Riff4 x5
Riff5
Riff6
Riff1 x2


Tabbed by Thibault Salles
___________________________________________________________________________
FRANCE PRATIQUE - http://www.pratique.fr
___________________________________________________________________________
Другие песни: