EmpyriumMany Moons Ago Текст, аккорды

0 Голосов
Empyrium - Many Moons Ago - Where At Night The Wood Grouse Plays

Transcribed by Corpse


Intro Gtr I
|-----------|
|-----------|
|----7-8-10-|
|-10--------|
|-----------|
|-----------|
|
| Gtr I x 2 0:01 - 0:17
|-------------------------3-------------------------------------------|
|-8---8h9p8-6---6h8p6-4-----3-----------------------------------------|
|------------------------------0--5-7-8--0--7-8-10--10--7---8-7-5--5--|
|---------------------------------------------------------------------|
|---------------------------------------------------------------------|
|---------------------------------------------------------------------|
|
| Gtr II x 2 1. 2.
|-------------------------------------------------------------|-------------3--|----------------|
|-------------------------------------------------------------|----3----------4|-------------4--|
|-----5---------3---------5--------3---------5-----------3----|------3---------|----3--------5-5|
|---5---5-----3---3-----5---5----3---3-----5---5-------3---3--|--3--------5----|--3---3----5----|
|-3---------1---------3--------1---------3----------1---------|1--------3------|1--------3------|
|-------------------------------------------------------------|----------------|----------------|


Gtr I x 2 0:18 - 0:35 1. 2.
|---------------------------------|-------|-----|-------|
|-8--8-6--6-4--4-3--3-1--1-3--3-3-|-4-3-1-|-4-1-|--/6---|
|---------------------------------|-------|-----|-------|
|---------------------------------|-------|-----|-------|
|---------------------------------|-------|-----|-------|
|---------------------------------|-------|-----|-------|
|
| Gtr II x 2
|--------------------------------------------------------------------3---|
|----------------------------------------------------------------------4-|
|-----5--------3--------5--------3--------5--------3--------3------------|
|---5---5----3---3----5---5----3---3----5---5----3---3----3---3----5-----|
|-3--------1--------3--------1--------3--------1--------1--------3-------|
|------------------------------------------------------------------------|


Gtr I x 2 0:36 - 0:53
|----------------------3--------------------------------------------|
|-8--8h9p8-6--6h8p6-4----3------------------------------------------|
|---------------------------0--5-7-8--0--7-8-10--10--7---8-7-5------|
|---------------------------------------------------------------/8--|
|-------------------------------------------------------------------|
|-------------------------------------------------------------------|
|
| Gtr II x 2 1. 2.
|-------------------------------------------------------------|-------------3--|----------------|
|-------------------------------------------------------------|----3----------4|-------------4--|
|-----5---------3---------5--------3---------5-----------3----|------3---------|----3--------5-5|
|---5---5-----3---3-----5---5----3---3-----5---5-------3---3--|--3--------5----|--3---3----5----|
|-3---------1---------3--------1---------3----------1---------|1--------3------|1--------3------|
|-------------------------------------------------------------|----------------|----------------|
|
| Gtr III x 1
|-------------------------------------------------------------------------------------|
|-8--8--8--8--8--8-9-8-9-8--8-9-8-9-8---6--8---8-9-8-6-8-6---6------------------------|
|----------------------------------------------------------8---8-7-8-7-7-8-7--7h8p7-5-|
|-------------------------------------------------------------------------------------|
|-------------------------------------------------------------------------------------|
|-------------------------------------------------------------------------------------|
|
|---------------------------6--------------------------------------------------|
|-/6--8--8-9-8-9-8--8-9-8-9----9-8-6--8----------------------------------------|
|-----------------------------------------0--5-7-8--0--7-8-10--10--7---8-7-5--5|
|------------------------------------------------------------------------------|
|------------------------------------------------------------------------------|
|------------------------------------------------------------------------------|


Gtr I x 2 0:54 - 1:10 1. 2.
|---------------------------------|-------|-----|-------|
|-8--8-6--6-4--4-3--3-1--1-3--3-3-|-4-3-1-|-4-1-|--/6---|
|---------------------------------|-------|-----|-------|
|---------------------------------|-------|-----|-------|
|---------------------------------|-------|-----|-------|
|---------------------------------|-------|-----|-------|
|
| Gtr II x 2
|--------------------------------------------------------------------3---|
|----------------------------------------------------------------------4-|
|-----5--------3--------5--------3--------5--------3--------3------------|
|---5---5----3---3----5---5----3---3----5---5----3---3----3---3----5-----|
|-3--------1--------3--------1--------3--------1--------1--------3-------|
|------------------------------------------------------------------------|


Gtr I x 2 1:11 - 1:28
|----------------------3---------------------------------------------|
|-8--8h9p8-6--6h8p6-4----3-------------------------------*-----------|
|---------------------------0--5-7-8--0--7-8-10--10--7---7-8-7-5-----|
|-----------------------------------------------------------------/8-|
|--------------------------------------------------------------------|
|--------------------------------------------------------------------|
| * only the 1st time
| Gtr II x 2
|------------------------------------------------------------------------|
|--------------------------------------------------------------------4---|
|-----5--------3--------5--------3--------5--------3--------3--------5-5-|
|---5---5----3---3----5---5----3---3----5---5----3---3----3---3----5-----|
|-3--------1--------3--------1--------3--------1--------1--------3-------|
|------------------------------------------------------------------------|
|
| Gtr III x 2
|----------------------------------------------------------------------------------------------|
|------------------------------------8-------------8-----------------9--9--11-9-8------------*-|
|-------7-8-7----7-7-8-10-8-7-8-8-10---10-8-7---7----10--8--7--7--7---------------10-8-7-8-7-5-|
|-10-10-------10-------------------------------------------------------------------------------|
|----------------------------------------------------------------------------------------------|
|----------------------------------------------------------------------------------------------|
* only the 2nd time

Gtr I x 1 1:29 - 1:37
|--------------------------------------|
|-8--8-6--6-4--4-3--3-1--1-3--3-3--4-1-|
|--------------------------------------|
|--------------------------------------|
|--------------------------------------|
|--------------------------------------|
|
| Gtr II x 1
|------------------------------------------------------------------------|
|------------------------------------------------------------------------|
|-----5--------3--------5--------3--------5--------3--------3--------5---|
|---5---5----3---3----5---5----3---3----5---5----3---3----3---3----5---5-|
|-3--------1--------3--------1--------3--------1--------1--------3-------|
|------------------------------------------------------------------------|
|
| Gtr III x 1
|--------------------------------------------------------------------3---|
|-----------------------------------------------------------3----------4-|
|-------------------------------------------------------------3----------|
|---------------------------------------------------------3--------5-----|
|-------------------------------------------------------1--------3-------|
|------------------------------------------------------------------------|


Gtr I x 4 1:38 - 2:14 1,2,3 4
|----------------------------------------------------------------------------|---|----|
|---8-9--8----6-8--6----8-9--8----6-8--6----8-11--8----6-8--6----------------|---|----|
|-8---------7---------8---------7---------8----------7---------7---7--8-7----|---|----|
|-------------------------------------------------------------------------10-|-9-|----|
|----------------------------------------------------------------------------|---|-10-|
|----------------------------------------------------------------------------|---|----|
|
| Gtr II x 4
|------------------------------------------------------------------------------------------|
|-8--8-8h9p8-6--6-6h8p6-8--8-8h9p8-6--6-6h8p6-8--8-8h9p8-6--6-6h8p6-9--9-9h11p9-8--8-8h9p8-|
|------------7---------------------7---------------------7---------------------------------|
|------------------------------------------------------------------------------------------|
|------------------------------------------------------------------------------------------|
|------------------------------------------------------------------------------------------|
|
| Gtr III x 4
|------------------------------------------------------------------------|
|--------------------------------------------------------------------4---|
|-----5--------3--------5--------3--------5--------3--------3--------5-5-|
|---5---5----3---3----5---5----3---3----5---5----3---3----3---3----5-----|
|-3--------1--------3--------1--------3--------1--------1--------3-------|
|------------------------------------------------------------------------|
|
| Gtr IV x 4
|------------------------------------------------------------1-----------|
|----------------------------------------------------------3-------------|
|--------------------------------------------------------3-----3-----5---|
|------------------------------------------------------------------5---5-|
|----------------------------------------------------------------3-------|
|------------------------------------------------------------------------|
|
| Gtr V x 2 ~ ~ ~ 1. 2.
|----------------------------------------------------------------|-----------------|---------------|
|----------------------------------------------------------------|--------8--------|---8-9-11------|
|-8--8-8h10p8-7--7-7/8-8--8-8h10p8-7--7-7/8-8--8-8h10p8-7--7-7/8-|10--10-----------|10-------------|
|----------------------------------------------------------------|-----------10---9|----------9--10|
|----------------------------------------------------------------|-----------------|---------------|
|----------------------------------------------------------------|-----------------|---------------|
Play Gtr V from the 3rd time


Gtr I x 2 2:15 - 2:31
|---------------------------------------------------------------------------|
|---------------------------------------------------------------------------|
|---------------------------------------------------------------------------|
|------------------------------------5--5-----------------------------------|
|-3---3-1--1-3---3-1---1-3---3-5---5-------3-5-6--6-------------------------|
|---------------------------------------------------------------------------|
|
| Gtr II x 2
|---------------------------------------------------------------------------|
|---------------------------------------------------------------------------|
|-----------------------------------/8--7------5--3-------------------------|
|-5---5-3--3-5---5-3---3-5---5-3---3----------------------------------------|
|---------------------------------------------------------------------------|
|---------------------------------------------------------------------------|
|
| Gtr III x 2 1. 2.
|---------------------------------|-------|-----|-------|
|-8--8-6--6-4--4-3--3-1--1-3--3-3-|-4-3-1-|-4-1-|--/6---|
|---------------------------------|-------|-----|-------|
|---------------------------------|-------|-----|-------|
|---------------------------------|-------|-----|-------|
|---------------------------------|-------|-----|-------|
|
| Gtr IV x 2
|------------------------------------------------------------------------|
|--------------------------------------------------------------------4---|
|-----5--------3--------5--------3--------5--------3--------3--------5-5-|
|---5---5----3---3----5---5----3---3----5---5----3---3----3---3----5-----|
|-3--------1--------3--------1--------3--------1--------1--------3-------|
|------------------------------------------------------------------------|


Gtr I x 2 2:32 - 2:50
|---------------------------------------------------------------------------|
|---------------------------------------------------------------------------|
|---------------------------------------------------------------------------|
|------------------------------------5--5-----------------------------------|
|-3---3-1--1-3---3-1---1-3---3-5---5-------3-5-6--6-------------------------|
|---------------------------------------------------------------------------|
|
| Gtr II x 2
|---------------------------------------------------------------------------|
|---------------------------------------------------------------------------|
|-----------------------------------/8--7------5--3-------------------------|
|-5---5-3--3-5---5-3---3-5---5-3---3----------------------------------------|
|---------------------------------------------------------------------------|
|---------------------------------------------------------------------------|
|
| Gtr III x 2
|--------------------------3----------------------------------------------|
|-8--8-8h9p8-6--6-6h8p6-4----3--------------------------------------------|
|-------------------------------0--5-7-8--0--7-8-10--10--7--7--8-7-5------|
|---------------------------------------------------------------------/8--|
|-------------------------------------------------------------------------|
|-------------------------------------------------------------------------|
|
| Gtr IV x 2 1. 2.
|-------------------------------------------------------------|----------------|-------------3--|
|-------------------------------------------------------------|-------------4--|----3----------4|
|-----5---------3---------5--------3---------5-----------3----|----3--------5-5|------3---------|
|---5---5-----3---3-----5---5----3---3-----5---5-------3---3--|--3---3----5----|--3--------5----|
|-3---------1---------3--------1---------3----------1---------|1--------3------|1--------3------|
|-------------------------------------------------------------|----------------|----------------|
|
| Gtr V x 1
|---------------------------------------------------------------------------------|
|-8--8--8--8-9-8-9-8--8-9-8-9-8---6--8--8--8-9-8-6-8-6---6------------------------|
|------------------------------------------------------8---8-7-8-7-7-8-7--7h8p7-5-|
|---------------------------------------------------------------------------------|
|---------------------------------------------------------------------------------|
|---------------------------------------------------------------------------------|
|
|---------------------------6-------------------------------------------------|
|-/6--8--8-9-8-9-8--8-9-8-9----9-8-6--8---------------------------------------|
|-----------------------------------------0--5-7-8--8--7-8-10-10-7---8-7-5--5-|
|-----------------------------------------------------------------------------|
|-----------------------------------------------------------------------------|
|-----------------------------------------------------------------------------|


Gtr I x 2 2:51 - 3:08
|---------------------------------------------------------------------------|
|---------------------------------------------------------------------------|
|---------------------------------------------------------------------------|
|------------------------------------5--5-----------------------------------|
|-3---3-1--1-3---3-1---1-3---3-5---5-------3-5-6--6-------------------------|
|---------------------------------------------------------------------------|
|
| Gtr II x 2
|---------------------------------------------------------------------------|
|---------------------------------------------------------------------------|
|-----------------------------------/8--7------5--3-------------------------|
|-5---5-3--3-5---5-3---3-5---5-3---3----------------------------------------|
|---------------------------------------------------------------------------|
|---------------------------------------------------------------------------|
|
| Gtr III x 2
|----*----------*----------3---------------------------------------------|
|-8--8-8h9p8-6--6-6h8p6-4----3-------------------------------*-----------|
|-------------------------------0--5-7-8--0--7-8-10--10--7---7-8-7-5-----|
|---------------------------------------------------------------------/8-|
|------------------------------------------------------------------------|
|------------------------------------------------------------------------|
| * only the 1st time
| Gtr IV x 2 1. 2.
|-------------------------------------------------------------|-------------3--|----------------|
|-------------------------------------------------------------|----3----------4|-------------4--|
|-----5---------3---------5--------3---------5-----------3----|------3---------|----3--------5-5|
|---5---5-----3---3-----5---5----3---3-----5---5-------3---3--|--3--------5----|--3---3----5----|
|-3---------1---------3--------1---------3----------1---------|1--------3------|1--------3------|
|-------------------------------------------------------------|----------------|----------------|
|
| Gtr V x 2
|----------------------------------------------------------------------------------------------|
|------------------------------------8-------------8-----------------9--9--11-9-8------------*-|
|-------7-8-7----7-7-8-10-8-7-8-8-10---10-8-7---7----10--8--7--7--7---------------10-8-7-8-7-5-|
|-10-10-------10-------------------------------------------------------------------------------|
|----------------------------------------------------------------------------------------------|
|----------------------------------------------------------------------------------------------|
* only the 2nd time


Gtr I x 1 3:09 - 3:17
|---------------------------------------------------------------------------|
|---------------------------------------------------------------------------|
|---------------------------------------------------------------------------|
|------------------------------------5--5-----------------------------------|
|-3---3-1--1-3---3-1---1-3---3-5---5-------3-5-6--6-------------------------|
|---------------------------------------------------------------------------|
|
| Gtr II x 1
|---------------------------------------------------------------------------|
|---------------------------------------------------------------------------|
|-----------------------------------/8--7------5--3-------------------------|
|-5---5-3--3-5---5-3---3-5---5-3---3----------------------------------------|
|---------------------------------------------------------------------------|
|---------------------------------------------------------------------------|
|
| Gtr III x 1
|---------------------------------------------------------------------------|
|---------------------------------------------------------------------------|
|-----5--------3---------5---------3---------5--------3--------3--------5---|
|---5---5----3---3-----5---5-----3----3----5---5----3---3----3---3----5---5-|
|-3--------1---------3---------1---------3--------1--------1--------3-------|
|---------------------------------------------------------------------------|
|
| Gtr IV x 1
|--------------------------3----------------------------------------------|
|-8--8-8h9p8-6--6-6h8p6-4----3--------------------------------------------|
|-------------------------------0--5-7-8--0--7-8-10--10--7---7-8-7-5------|
|---------------------------------------------------------------------/8--|
|-------------------------------------------------------------------------|
|-------------------------------------------------------------------------|
|
| Gtr V x 1
|----------------------------------------------------------------------|
|------------------------8-8-8-----------------------6-8----9-8-8------|
|----------------------------------------------------------------------|
|----------------------------------------------------------------------|
|----------------------------------------------------------------------|
|----------------------------------------------------------------------|


Gtr I x 1 3:18 - 3:27
|---------------------------------------------------------------------------|
|---------------------------------------------------------------------------|
|---------------------------------------------------------------------------|
|------------------------------------5--5-----------------------------------|
|-3---3-1--1-3---3-1---1-3---3-5---5-------3-5-6--6-------------------------|
|---------------------------------------------------------------------------|
|
| Gtr II x 1
|---------------------------------------------------------------------------|
|---------------------------------------------------------------------------|
|-----------------------------------/8--7------5--3-------------------------|
|-5---5-3--3-5---5-3---3-5---5-3---3----------------------------------------|
|---------------------------------------------------------------------------|
|---------------------------------------------------------------------------|
|
| Gtr III x 1
|---------------------------------------------------------------------------|
|---------------------------------------------------------------------------|
|-----5--------3---------5---------3---------5--------3--------3--------5---|
|---5---5----3---3-----5---5-----3----3----5---5----3---3----3---3----5---5-|
|-3--------1---------3---------1---------3--------1--------1--------3-------|
|---------------------------------------------------------------------------|
|
| Gtr IV x 1
|---------------------------------------------|
|-8--8-6--6-4--4-3----------------------------|
|-------------------5-7-8--7-8-10--/8--7-5----|
|---------------------------------------------|
|---------------------------------------------|
|---------------------------------------------|
|
| Gtr V x 1
|---------------------------------------------|
|------------8-8-8-------6-8------------------|
|---------------------------------------------|
|---------------------------------------------|
|---------------------------------------------|
|---------------------------------------------|


Gtr I x 5 3:28 - 4:15
|---------------------------------------------------------------------------|
|---------------------------------------------------------------------------|
|---------------------------------------------------------------------------|
|------------------------------------5--5-----------------------------------|
|-3---3-1--1-3---3-1---1-3---3-5---5-------3-5-6--6-------------------------|
|---------------------------------------------------------------------------|
|
| Gtr II x 5
|---------------------------------------------------------------------------|
|---------------------------------------------------------------------------|
|-----------------------------------/8--7------5--3---*---------------------|
|-5---5-3--3-5---5-3---3-5---5-3---3------------------5---------------------|
|---------------------------------------------------------------------------|
|---------------------------------------------------------------------------|
* only last time
Другие песни: