EminemSing For The Moment (Solo) Текст

0 Голосов
Solo
e|--------14-----------14-----14--17b---|
B|-----14----14-----14------------------|
G|-16b----------16b-------16b-----------|
D|--------------------------------------|
A|--------------------------------------|
E|--------------------------------------|

E|-14h17p14----14---------14h17p14----14-------------|
B|----------17-----14-17b----------17----17-14h17p14-|
G|---------------------------------------------------|
D|---------------------------------------------------|
A|---------------------------------------------------|
E|---------------------------------------------------|

e|--------------------------------------14-----------|
B|----14-----------------------------------14--------|
G|-16----16-14h16p14----14-----14--16b--------16b~~--|
D|-------------------16----16------------------------|
A|---------------------------------------------------|
E|---------------------------------------------------|

E|--------------------------14--------14-|
B|-----------------------------14-17b----|
G|-14h16p14----14----14-16b--------------|
D|----------16----16---------------------|
A|---------------------------------------|
E|---------------------------------------|

e|-------14-17-14----14---------------------|
B|-14-17----------17----17-14h17p14-----14--|
G|-----------------------------------16-----|
D|------------------------------------------|
A|------------------------------------------|
E|------------------------------------------|

E|------------14-------------14----------14-------|
B|----------------17p14---------17p14-------17p14-|
G|-16-14--16b------------16b----------16b---------|
D|------------------------------------------------|
A|------------------------------------------------|
E|------------------------------------------------|

E|-----14--------------14-------14--------14-----14--------14--|
B|--------17p14-----14----14-17----14-17b----17b----14-17b-----|
G|-16b----------16b--------------------------------------------|
D|-------------------------------------------------------------|
A|-------------------------------------------------------------|
E|-------------------------------------------------------------|

E|-----14-14h17p14----14----|
B|-17b-------------17----17-|
G|--------------------------|
D|--------------------------|
A|--------------------------|
E|--------------------------|

e|----------------17-19-19b--17-14----14-----|
B|-14h17p14----14------------------17--------|
G|----------16---------------------------16b-|
D|-------------------------------------------|
A|-------------------------------------------|
E|-------------------------------------------|

E|-14--------------------------------------------|
B|----14-----------------------------------17----|
G|-------16b-14h16p14----14---------14-16b---16b-|
D|--------------------16---16-14-16--------------|
A|-----------------------------------------------|
E|-----------------------------------------------|

e|------------------------------------------------|
B|------------------------------------------------|
G|-14-16-17-16--14-16-17-16--14-16-17-16-14-16-17-|
D|------------------------------------------------|
A|------------------------------------------------|
E|------------------------------------------------|

E|------------------------------------------|
B|------------------------------------------|
G|-16-14-16-17-16--14-16-17-16--14-16-17-16-|
D|------------------------------------------|
A|------------------------------------------|
E|------------------------------------------|
fade out
E|------------------14h17p14----14--------------|
B|--------17-----------------17----17-14h17p14--|
G|-14-16b----16b~~------------------------------|
D|----------------------------------------------|
A|----------------------------------------------|
E|----------------------------------------------|

E|-----------------------------------|
B|---14------------------------------|
G|16----16-14h16p14-----14----14-16b-|
D|-------------------16----16--------|
A|-----------------------------------|
E|-----------------------------------|
Другие песни: