Эм КалининЦейтnot Текст, аккорды

0 Голосов
Вступление, первый и четвёртый куплет:
Cm Fm Gm Gm
E||:----3---3------4---4------3---3-----3----3---
B||:----4---4------6---6------3---3-----3----3---
G||:----5---5------5---5------3---3-----3----3---
D||:----5---5----3---3---3----5---5-----5----5---
A||:--3---3---3---------------5---5-----5----5---
E||:------------------------3---3---3-3---3---3--

Второй куплет:
Cm Fm Gm Gm
> ^ ^ ^ > ^ ^ ^ > ^ ^ ^ > ^ ^ ^
E||:--3-----3---3-3-3-4-----4---4-4-4-3-----3---3-3-3-3-----3---3-3-3--
B||:--4-----4---4-4-4-6-----6---6-6-6-3-----3---3-3-3-3-----3---3-3-3--
G||:--5-----5---5-5-5-5-----5---5-5-5-3-----3---3-3-3-3-----3---3-3-3--
D||:--5-----5---5-5-5-3-----3---3-3-3-5-----5---5-5-5-5-----5---5-5-5--
A||:--3-----3---3-3-3-----------------5-----5---5-5-5-5-----5---5-5-5--
E||;----------------------------------3-----3---3-3-3-3-----3---3-3-3--

Третий куплет, кода:
Cm Fm Gm Gm
> > > ^ > > > ^ > > > ^ > > > ^
E||:--3-3-3-3-3-3-3-3-4-4-4-4-4-4-4-4-3-3-3-3-3-3-3-3-3-3-3-3-3-3-3-3--
B||:--4-4-4-4-4-4-4-4-6-6-6-6-6-6-6-6-3-3-3-3-3-3-3-3-3-3-3-3-3-3-3-3--
G||:--5-5-5-5-5-5-5-5-5-5-5-5-5-5-5-5-3-3-3-3-3-3-3-3-3-3-3-3-3-3-3-3--
D||:--5-5-5-5-5-5-5-5-3-3-3-3-3-3-3-3-5-5-5-5-5-5-5-5-5-5-5-5-5-5-5-5--
A||:--3-3-3-3-3-3-3-3-----------------5-5-5-5-5-5-5-5-5-5-5-5-5-5-5-5--
E||:----------------------------------3-3-3-3-3-3-3-3-3-3-3-3-3-3-3-3--

—————————

Cm Fm Gm
Трамплин — шесть шагов и балкон,
Gm
ватные столы.
Cm Fm Gm
Самый добрый дурдом —
Gm
сетка на окне,
Cm Fm Gm
а за ней — жалюзи
Gm
на перерезанной луне.
Cm Fm Gm
Только лишь попроси —
Gm
встретимся во сне.

Cm Fm Gm
Кенты, дайте бисер свинье,
Gm
а козлу — баян!
Cm Fm Gm
Пусть играют они,
Gm
а я наоборот!
Cm Fm Gm
Ты не хочешь ко мне,
Gm
Ира Арайан!
Cm Fm Gm
Окоянные дни,
Gm
ё…нный цейтнот!

Cm Fm Gm
Во мгле — поплавки фонарей,
Gm
тёмные дела.
Cm Fm Gm
Ты не хочешь ко мне,
Gm
ты мне не дала!
Cm Fm Gm
И нельзя мне в окно —
Gm
лишь второй этаж.
Cm Fm Gm
Знаю ты всё равно
Gm
никогда не дашь!

Cm Fm Gm
Сейчас пью пустырник и ем
Gm
«нош-пу» и «мизим»,
Cm Fm Gm
и на фотку твою
Gm
сам себя люблю.
Cm Fm Gm
Нет ни мыслей, ни тем —
Gm
я сижу один
Cm Fm Gm
в самодельном Раю,
Gm
в кухонном Аду.
Другие песни: