Ellie GouldingWish I Stayed Acoustic Текст

0 Голосов
Intro/Verse:
e------4-----4-----4-----4-----4-----4-----4--4--0-------------------|
B------2-----2-----2-----2-----2-----2-----2--2--2-------------------|
G--------------------------------------------------------------------|
D--------------------------------------------------------------------|
A---0-----0-----0-----0-----0-----0-----0----------------------------|
E--------------------------------------------------------------------|

e------0-----0-----0-----0-----0-----0-----0--0--0-------------------|
B------2-----2-----2-----2-----2-----2-----2--2--2-------------------|
G--------------------------------------------------------------------|
D--------------------------------------------------------------------|
A---4-----4-----4-----4-----4-----4-----4----------------------------|
E--------------------------------------------------------------------|


These are the chords for the chorus:
You found that skipping rope....
e---4----4-------4--4--4--4------0---0------0--0--0--0---------------|
B---2----2-------2--2--2--2------2---2------2--2--2--2---------------|
G---2----2-------2--2--2--2------1---1------1--1--1--1---------------|
D---2----2-------2--2--2--2------2---2------2--2--2--2---------------|
A---0----0-------0--0--0--0------0---0------0--0--0--0---------------|
E--(0)--(0)-----(0)(0)(0)(0)----(0)-(0)----(0)(0)(0)(0)--------------|

This is for the 'I don't own my clothes...' bit:
e------4----4-4----0----0-0-----|
B------2----2-2----2----2-2-----|
G-------------------------------| x3
D-------------------------------|
A------0----0-0----4----4-4-----|
E-------------------------------|
Другие песни: