Electric Light OrchestraMr Blue Sky (2 вариант) Текст

0 Голосов
Intro q q q q q q q q q q q q q q
G----------------------------|--------------|--------------|------------
D---4:-----------------------|--------------|--------------|------------
A---4:-----------------------|--------------|--------------|------------
E----------------1--1--1--1--|--1--1--1--1--|--1--1--1--1--|--1--1------

q q Verse q q q q q q q q q q q q
G---------||-----------------------|--------------|--------------|------
D---------||-----------------------|--------------|--------------|------
A---------||-----------------------|--------------|--------------|------
E---1--1--||-----------1--1--1--1--|--1--1--1--1--|--1--1--1--1--|------

q q q q q q q q q q q q q q q q q q
G---------------|--------------|--------------|--------------|----------
D---------------|--------------|--------------|--------------|----------
A---------------|--5--5--5--5--|--------------|--7--7--7--7--|----------
E---0--0--5--5--|--------------|--3--3--3--3--|--------------|--5--5----

q q q q q q q q q q q q q q q q q q
G---------|--------------|--------------|--------------|----------------
D---------|--------------|--------------|--------------|----------------
A---------|--------------|--3--3--3--3--|--------------|--3--3--3--3----
E---5--5--|--6--6--6--6--|--------------|--1--1--1--1--|----------------


Chorus q q h q q h q q h q q h q
G---||--------------r--r--|--------r--|-----r--r--|--------r--|---------
D---||--------------e--e--|--------e--|-----e--e--|--------e--|---------
A---||-----------5--s--s--|--3--3--s--|--1--s--s--|--------s--|---------
E---||--------------t--t--|--------t--|-----t--t--|--5--5--t--|--3------

q h q q h h q q h q q q q q q
G---r--r--|--------r--|-----0--3--|-----------|--------------||---------
D---e--e--|--------e--|--1--------|-----0--3--|--------------||---------
A---s--s--|--------s--|-----------|--1--------|--2--2--2--2--||---------
E---t--t--|--1--1--t--|-----------|-----------|--------------||---------

Chorus 2 e e q q e e q q h q Q e q q q
G---------------r--------2--r-----|--------r--|--r--0--------|-----2----
D---------------e--0--3-----e-----|--2--3--e--|--e-----3--0--|----------
A---------------s-----------s--1--|--------s--|--s-----------|--3-------
E---------------t-----------t-----|--------t--|--t-----------|----------

h q q h q q h Q Q q Q Q q q q q q
G---r--|--r-----r--|--------r--|--8--------|--7--------|----------------
D---e--|--e-----e--|-----3--e--|-----8--5--|-----7-----|----------------
A---s--|--s--1--s--|--------s--|-----------|--------8--|--3--3--3--3----
E---t--|--t-----t--|--1-----t--|-----------|-----------|----------------

Last verse q q q q q q q q q q q q
G---||-----------------------------|--------------|--------------|------
D---||-----------------------------|--------------|--------------|------
A---||-----------------------------|--------------|--------------|------
E---||-----------------1--1--1--1--|--1--1--1--1--|--1--1--1--1--|------

q q q q q q q q q q q q q q q q q q
G---------------|--------------|--------------|--------------|----------
D---------------|--------------|--------------|--------------|----------
A---------0--0--|--5--5--5--5--|--------------|--------------|--0--0----
E---0--0--------|--------------|--3--3--3--3--|--0--0--0--0--|----------

q q q q q q q q q q q q q q q q q q
G---------|--------------|--------------|--------------|----------------
D---------|--------------|--------------|--------------|----------------
A---0--0--|--1--1--1--1--|--3--3--3--3--|--4--4--4--4--|--6--6--6--6----
E---------|--------------|--------------|--------------|----------------

Interlude q q q q q q q q q q q q q
G---||--------------7--5--------|--5-----------|--------------|---------
D---||--------------------7-----|-----7--------|--------------|---------
A---||-----------------------8--|--------8-----|-----0--1-----|--3------
E---||--------------------------|-----------5--|--3--------3--|---------

q q q q q q q q q q q q q q q q q q
G------------|--0--2--3--0--|--5--2--------|--3--0--------|-------------
D---0--2--3--|--------------|--------3--0--|--------1-----|--0--3--0----
A------------|--------------|--------------|-----------1--|-------------
E------------|--------------|--------------|--------------|-------------

q q q q q q q q q q q q q q q q q
G------|--7--5--------|--5-----------|--------------|--------------|----
D------|--------7-----|-----7--------|--------------|-----0--2--3--|----
A---1--|-----------8--|--------8-----|-----0--1-----|--3-----------|----
E------|--------------|-----------5--|--3--------3--|--------------|----

q q q q q q q q w q w q
G---0--2--3--0--|--5--2--------|-----|----------|-----|----------|------
D---------------|--------3--0--|--1--|--(1)--1--|-----|----------|------
A---------------|--------------|-----|----------|--1--|--(1)--1--|------
E---------------|--------------|-----|----------|-----|----------|------

w Outro e e e e e e e e (for awhile) e
G------||-----------------------------------------------------|---------
D------||-----------------------------------------------------|---------
A------||-----------4--4--4--4--4--4--4--4--------------------|--3------
E---1--||-----------------------------------------------------|---------

e e e e e e e e e e e e e e e w
G------------------------|--------------------------|-----|-------------
D------------------------|--------------------------|-----|-------------
A---3--3--3--3--3--3--3--|--2--2--2--2--2--2--2--2--|--1--|-------------
E------------------------|--------------------------|-----|-------------

Order:
Intro
Verse 2x
chorus 2x
verse 2x
chorus 2x
chorus 2 1x
verse 1x
last verse 1x
chorus 1x
chorus 2 1x
intrulude
outro
Другие песни: